• Streaming gitaar liedjes spelen
  • Leer gitaar spelen & gitaarlessen
  • 80.000 leden

Gitaarles: VERVOLG Oefeningen toonladder

Dit is een vervolgje op de les: ''Toonladder voor je eigen solo''

Dit is niet echt een les maar oefeningen die je kunt doen voor je snelheid enz.


Oefening 1:

( / is slide) ( B is bend) (h is hammer on)
e----------------------------------------------------------
b----------------------------------------------------------
g------------------5----------------------------------------
d-----------5h7---------------------------------------------  
a-----5/7-----------------------------------------------------
e----------------------------------------------------------


Oefening 2

e----------------------------------------------------------
b----------------------------------------------------------
g----------------------------------------------------------
d------------------3----------------------------------------
a-----------3--5------5--3-------------------------------------
e-----3--6------------------6--3-------------------------------

Oefening 3

e----------------------------------------------------------
b----------5----5---  -----------------------------------------  
g------7B----7B----7B----------------------------------------------  
d----------------------------------------------------------
a----------------------------------------------------------
e----------------------------------------------------------


Oefening 4

e----11--10--8--------------11--10--8--------------------------------
b---------------11--10--8--------------11--10--8---------------------
g----------------------------------------------------------
d----------------------------------------------------------
a----------------------------------------------------------
e----------------------------------------------------------

Oefening 5

e----------------------------------------------------------
b----------------------------------------------------------
g---------6-------------------------------------------------
d----4-h6-----------------------------------------------------
a----------------------------------------------------------
e----------------------------------------------------------

Oefening 6

e----------------------------------------------------------
b----3--6/8/6--3--------------------------------------------------
g-----------------5--3---------------------------------------
d----------------------------------------------------------
a----------------------------------------------------------
e----------------------------------------------------------

Oefening 7

e--------------------------------------------------------------------------
b--------------------------------------------------------------------------
g---------------------------10--8------------------------------------------
d--------------------8--10---------10--8-----------------------------------
a-------------8--10-----------------------10--8--------------5--7--5-------
e----5--8/10-------------------------------------10--8/5--8-----------8--5-


Commentaar is welkom.

Sonny


Met dank aan
Micheltje voor het idee
Probeer alle lessen voor slechts 1 euro! !

Gitaarles vragen, suggesties en opmerkingen

Makkia

Makkia 2009-05-19 20:05:19 / Reply

thanks voor de oefeningen!

hiermee leer je super goed je vingersnelheid verbeteren!


Micheltje

Micheltje 2009-03-27 16:03:43 / Reply

Geen probleem voor het idee Tong
Maar het voelde niet echt compleet,
vooral omdat ik nu ook veel met toonladders bezig ben,
en mijn gitaarleraar ook van dat soort oefeneingen heeft gegeven