• Streaming gitaar liedjes spelen
  • Leer gitaar spelen & gitaarlessen
  • 75.000 leden

Gitaarles: Mineur toonladder, Majeur toonladder

Hey
Ik heb hier een paar toonladders die je kenne helpen bij het maken van solo's

Deze ladders kan je overal spelen

De getallen zijn je vingers

Wijsvinger: 1
Middelvinger: 2
Ringvinger: 3
Pink: 4

Van boven naar beneden spelen, je begin bij (1)

Mineur toonladder

e|---1---|-----|-----|-----|-----|
B|---1---|--2--|-----|--4--|-----|
G|---1---|-----|--3--|-----|-----|
D|---1---|-----|--3--|-----|--4--|
A|---1---|-----|--3--|--4--|-----|
E|--(1)--|-----|--3--|--4--|-----|

Majeur toonladder

Begin bij (2)

e|--1--|---2---|-----|-----|
B|-----|---2---|-----|--4--|
G|--1--|-------|--3--|--4--|
D|--1--|-------|--3--|--4--|
A|--1--|---2---|-----|--4--|
E|-----|--(2)--|-----|--4--|

Als je dit onder de knie heb en je heb wat fantasie dan zou je zelf een solo kenne maken

Suc6, have fun
Claim nu je gratis 30 dagen gratis online gitaarles

Gitaarles vragen, suggesties en opmerkingen

gilerakevie

Gilerakevie 2012-05-10 00:00:00 / Reply

altijd leuk een toonladder spelen. Leuk voor solo's :)


gilerakevie

Gilerakevie 2012-05-10 00:00:00 / Reply

altijd leuk een toonladder spelen. Leuk voor solo's :)


gilerakevie

Gilerakevie 2012-05-10 00:00:00 / Reply

Even bericht plaatsen.


falu

Falu 2008-01-26 12:01:20 / Reply

Ik vindt dat er een filpje zou moeten bijzitten die heel traag toont hoe je de toonladders moet spelen zou krijg je het sneller onder de knie Kus