• Streaming gitaar liedjes spelen
  • Leer gitaar spelen & gitaarlessen
  • 80.000 leden

Gitaarles: De pentatonische toonladder

 

De pentatonische toonladder.

 

De pentatonische toonladder is één van de oudste toonladders van het muzikale bestaan. Ze bestaat maar uit 5 noten van de diatonische majeurladder. Zoals in onderstaande schema is er een majeur een mineur pentatonische ladder. In de majeur pentatonische ladder is er geen 4de en 7de noot uit de majeur diatonische toonladder. In de mineur pentatonische ladder is er geen 2de en 6de noot uit de mineur diatonische toonladder.

 

De pentatonische toonladders horen bij de meest geliefde vanwege hun sterke melodische eigenschappen. Diverse riffs uit de rock, blues, jazz, enz. zijn gebaseerd op de pentatonische toonladders.

 

Het leuke van de pentatonische toonladders is de combinatie van de alom gekende drie akkoorden schema’s en 12 maten songs. Ook de koppeling van de majeur en mineur pentatonische ladders geeft een waaier van speelposities, klanken en melodieën. Zo is bijvoorbeeld een C majeur pentatonisch identiek aan de A mineur pentatonisch. Het spelen van een solo in een majeur en mineur pentatonische toonladder, van dezelfde toonaard, geeft een ongelooflijk klankenspel. Eric Clapton, BB King, e.v.a.  gebruiken dit combinatiespel vrij frequent. Je krijgt een fantastische bluesy of jazz-sound. Een pentatonische toonladder leent zich voor onuitputtelijke combinaties. Het zijn dus niet de toonladders van de slechte of minder begaafde gitaristen, zoals soms beweerd wordt, maar wel van de melodische gitaristen.

 

Om deze ladders te leren spelen heb je vaste patronen. Je leer ze snel van buiten en zijn niet zo moeilijk.

 

 

Majeur pentatonisch in C

 

 

 

 

 

 

 

 

 

 

 

 

 

 

 

 

 

 

 

 

 

 

 

 

 

 

 

 

 

 

 

 

 

 

 

 

 

 

 

 

 

 

 

I

1 toon

II

1 toon

III

1 + 1/2 toon

IV

1 toon

V

1 + 1/2 toon

I

 

C

D

E

G

A

C

 

 

 

 

 

 

 

 

 

 

 

 

 

 

 

 

 

 

 

 

 

 

 

 

 

 

 

 

 

 

 

 

 

 

 

 

 

 

 

 

 

 

 

Mineur pentatonisch in C

 

 

 

 

 

 

 

 

 

 

 

 

 

 

 

 

 

 

 

 

 

 

 

 

 

 

 

 

 

 

 

 

 

 

 

 

 

 

 

 

 

 

 

 

I

1 + 1/2 toon

II

1 toon

III

1 toon

IV

1 + 1/2 toon

V

1 toon

I

 

C

Eb

F

G

Bb

C

 

 

 

 

 

 

 

 

 

Mineur pentatonisch in A

 

 

 

 

 

 

 

 

 

 

 

 

 

 

 

 

 

 

 

 

 

 

 

 

 

 

 

 

 

 

 

 

 

 

 

 

 

 

 

 

 

 

 

 

I

1 + 1/2 toon

II

1 toon

III

1 toon

IV

1 + 1/2 toon

V

1 toon

I

 

A

C

D

E

G

A

 

 

 

 

 

 

 

               

Een voorbeeld:

De "vorm" van de toonladder kan op elke plek van de gitaarhals gespeeld worden, de "toonsoort" word bepaald door de grondnoot. Dus het vanbuiten leren van deze patronen helpt je al goed op weg.

Om deze toonladder in A te spelen moet je beginnen met je eerste vinger op de vijfde fret.

Alle noten op de vijfde fret worden met de eerste vinger gespeeld, alle noten op de zevende fret moeten met de derde vinger worden gespeeld en alle noten op de achtste fret moeten met je vierde vinger gespeeld worden.

Probeer het eens, begin rustig en zorg dat je het precies speelt, je moet namelijk niet beginnen met het "foute" te oefen, dat is onzinnig!

 

Deze scales zijn in A mineur pentatonisch (identiek aan de C majeur pentatonisch)

Als je de patronen kent, kan je alle soorten technieken gebruiken: vibrato’s, bends, slide’s, pull-offs, hammer-on, enz. Je moet de patronen (helemaal of gedeeltelijk) combineren met elkaar.

Open de wereld van de pentatonische toonladder.

Veel succes!

 

De C majeur of A mineur pentatonsiche toonladder

 

Patroon 1

 

|----------------------|----------------------|------------5----8----|

|----------------------|----------------------|--5----8--------------|

|----------------------|------------5----7----|----------------------|

|----------------------|--5----7--------------|----------------------|

|------------5----7----|----------------------|----------------------|

|--5----8--------------|----------------------|----------------------|

 

Patroon 2

 

|------------------------|-----------------------|-------------8----10----|

|------------------------|-----------------------|--8----10---------------|

|------------------------|-------------7----9----|------------------------|

|------------------------|--7----10--------------|------------------------|

|-------------7----10----|-----------------------|------------------------|

|--8----10---------------|-----------------------|------------------------|

 

Patroon 3

                                                                                                   

|--------------------------|-------------------------|--------------10----12----|

|--------------------------|-------------------------|--10----13----------------|

|--------------------------|--------------9----12----|--------------------------|

|--------------------------|--10----12---------------|--------------------------|

|--------------10----12----|-------------------------|--------------------------|

|--10----12----------------|-------------------------|--------------------------|

 

Patroon 4

 

|--------------------------|--------------------------|--------------12----15----|

|--------------------------|--------------------------|--13----15----------------|

|--------------------------|--------------12----14----|--------------------------|

|--------------------------|--12----14----------------|--------------------------|

|--------------12----15----|--------------------------|--------------------------|

|--12----15----------------|--------------------------|--------------------------|

 

Patroon 5

 

|--------------------------|--------------------------|--------------15----17----|

|--------------------------|--------------------------|--15----17----------------|

|--------------------------|--------------14----17----|--------------------------|

|--------------------------|--14----17----------------|--------------------------|

|--------------15----17----|--------------------------|--------------------------|

|--15----17----------------|--------------------------|--------------------------|

 

Patroon 1 (1 octaaf hoger)

 

|--------------------------|--------------------------|--------------17----20----|

|--------------------------|--------------------------|--17----20----------------|

|--------------------------|--------------17----19----|--------------------------|

|--------------------------|--17----19----------------|--------------------------|

|--------------17----19----|--------------------------|--------------------------|

|--17----20----------------|--------------------------|--------------------------|

 

 Ontwerp en Uitleg: Johan Bielen

Probeer alle lessen voor slechts € 4,95 !

Gitaarles vragen, suggesties en opmerkingen