• Streaming gitaar liedjes spelen
  • Leer gitaar spelen & gitaarlessen
  • 75.000 leden

Gitaarles: Maak je eigen solo. [MED]

Maak je eigen solo.

Haj allemaal. dit is mijn eerste les. ik ga jullie uitleggen hoe je zelf een coole solo kan "componeren" om te beginnen kies je een toonladder uit. ik ga voor de deze:

E---------------------------------12-15-|
B---------------------------12-15-------|
G---------------------12-14-------------|
D---------------12-14-------------------|
A---------12-14-------------------------|
E--12--15-------------------------------|

~~~~~~~~
Met deze toonladder in je gedachten kun je beginnen.

1) eerst moet je deze toonladder goed kunnen spelen. zeg maar, 16e noten op 140 bpm. en dan vloeiend. het liefst nog sneller.
2) nu om te beginnen met je solo, speel je eerst een keer heel snel de toonladder omhoog. dus je begint bij de lage E en je eindigt bij de hoge E,
en speel dan weer de toonladder teruguit naar ongeveer de G-snaar. nu ziet je solo er zo uit:

E---------------------------------12-15-15-12-------|
B---------------------------12-15-------------15-12-|
G---------------------12-14-------------------------|
D---------------12-14-------------------------------|
A---------12-14-------------------------------------|
E--12--15-------------------------------------------|

~~~~~~~~
3) dit klinkt nog niet zo heel speciaal... wat nu? nu komt het lastigste gedeelte van de solo. je moet gaan snaren opdrukken, en vibrato's spelen.
hierover zal ik nog wel lessen schrijven. maar voor nu leg ik het wel even uit. als je een snaar opdrukt moet je je vinger op vakje zetten.
Het liefst de B of E snaar. nu sla je deze snaar aan, en ga je met de hand waarvan de vinger in het vakje staat, omhoog over de hals. dus je duwt
de snaar richting de volgende snaar. zodat deze snaar een beetje hoger klinkt. dit geef ik aan met het symbool ^.
nu speel je het stukje opnieuw, maar dan met een paar opdrukkingen er tussen. dan ziet het er zo uit:

E---------------------------------12-15^-15-12---------|
B---------------------------12-15-------------15^-12^--|
G---------------------12-14^---------------------------|
D---------------12-14----------------------------------|
A---------12-14----------------------------------------|
E--12--15----------------------------------------------|

~~~~~~~~ 4) jaja, dat begint al ergens op te lijken. nu die vibrato's nog waar ik het net over had. vibrato is dat je een noot aanslaat en dat je met je vinger
die op de hals staat een beetje op en neer trilt. heel klein beetje trillen. zeg maar "vibreren". dit geef ik aan met een *. nu ziet het er zo uit:

E-----------------------------------12-15^-15*-12--------------|
B---------------------------12-15*---------------15^-12^-12*---|
G---------------------12-14^-----------------------------------|
D---------------12-14------------------------------------------|
A---------12*-14-----------------------------------------------|
E--12--15*-----------------------------------------------------|

~~~~~~ 5) nu zuk je jezelf wel al een echte Jimi Hendrix voelen, maar we gaan nog door voor het volgende stuk is je fantasie. kleine dingetjes ertussen maken het af.
E-----------------------------------12-15^-15*-12----------------------------12---------12-----14-----------------|
B---------------------------12-15*---------------15^-12^-12*--------------12--------12*--------14-----------------|
G---------------------12-14^---------------------------------11-12-11-14^-------14^------------14-13-12*----------|
D---------------12-14----------------------------------------------------------------------12------------12^------|
A---------12*-14---------------------------------------------------------------------------12----------------14-12|
E--12--15*--------------------------------------------------------------------------------------------------------|
~~~~~

6) oefen je solo goed. de solo is pas vet als ie snel gaat. dus veel oefenen, en als ie dan snel gaat dan ben jij klaar om te solo'en Knipoog

Grtz Remco. Claim nu je gratis 30 dagen gratis online gitaarles

Gitaarles vragen, suggesties en opmerkingen

twisterNL

TwisterNL 2008-04-14 20:04:44 / Reply

wat je wel kan doen is in internet explorer je CTRL toets indrukken en dan met je muiswiel scrollen (letop !!! je moet ook weer terug schrollen om kleinere lettertjes te krijgen he Knipoog Knipoog ) nu kun je hier inzoomen en kun je gewoon lekker spelen vanaf je scherm Lachen


JanH

JanH 2008-04-14 20:04:38 / Reply

Hoi allemaal, zelf heb ik een hp laptop (breedbeeld) en nergens last van Grijns


JanH

JanH 2008-01-24 17:01:23 / Reply

Gaat niet lukken Tong lettertype is vastgestled, enige dat je kunt doen is de laatste solo aanpassen door deze in tweeen te knippen Ik weet het niet helaas..


Remco

Remco 2008-01-15 18:01:56 / Reply

Wha :S ding doet heel raar. in kladblok klopte die maar hier niet... ff aanpassen :S