• Streaming gitaar liedjes spelen
  • Leer gitaar spelen & gitaarlessen
  • 75.000 leden

Gitaarles: Snelheid trainen!

Hallo iedereen en welkom bij deze les 

Iedereen kijkt wel eens youtube filmpjes, of luistert muziek en denkt bij sommige stukjes "wow! die gast is snel!". Snelheid is eigenlijk iets waar een deel talent bij komt kijken, maar voor het grootste deel is het gewoon flink oefenen en bijhouden. In deze les wil ik het hebben over iets dat 'chromatics' heet. Het idee hierachter is om met allevier je vingers je fretboard op en af te lopen. Er is niets muzikaals aan, maar helpt je wel om snelheid op te bouwen en behouden.

Dit is het patroon dat je gaat spelen:

E|-------------------------------------------------
B|-------------------------------------------------
G|-------------------------------------12-13-14-15-
D|-------------------------12-13-14-15-------------
A|-------------12-13-14-15-------------------------
E|-12-13-14-15-------------------------------------

E|-------------------------------------14-15-16-17-
B|------------------------14-15-16-17--------------
G|15-14-13-12-14-15-16-17--------------------------
D|-------------------------------------------------
A|-------------------------------------------------
E|-------------------------------------------------

E|18-17-16-15--------------------------------------
B|-------------18-17-16-15-------------------------
G|-------------------------18-17-16-15-14-15-16-17-
D|-------------------------------------------------
A|-------------------------------------------------
E|-------------------------------------------------

E|-------------------------------------------------
B|-------------------------------------------------
G|16-15-14-13--------------------------------------
D|------------16-15-14-13--------------------------
A|------------------------16-15-14-13--------------
E|------------------------------------16-15-14-13--

Nu de dingen waar je op moet letten.

  • Doe deze oefening altijd met een metronoom, bijvoorbeeld van www.metronomeonline.com
  • Elk nootje is een 16e noot, dit betekent dat je per tik (van je metronoom) vier noten telt
  • Probeer elke noot die gelijk valt met de tik (elke eerste van de reeks van vier dus) iets harder aan te slaan. Hierdoor klinkt het iets strakker en kun je ook voor jezelf een beetje overzicht houden of je nog gelijk gaat met je metronoom.
  • Gebruik altijd vier vingers
  • Gebruik 'Alternate Picking'; dwz sla met je plectrum om en om naar boven en naar beneden aan

Hiermee kun je veel sneller dan als je alleen naar boven of alleen naar beneden aanslaat!


Om jezelf een perfecte techniek aan te leren moet je op het volgende letten:

  • Houd je de top van je duim altijd de achterkant van de hals van je gitaar
  • Zet je vingers tijdens het spelen ongeveer loodrecht op de snaren.


De oefening:
Start met het metronoom langzaam (+/- 60 tikken per minuut), misschien lijkt dit te langzaam, maar het is goed om te oefenen met het metronoom langzaam, zodat je jezelf timing aan kunt leren en je zo strakker leert spelen. Doe dan een aantal keren bovenstaand patroontje, bijvoorbeeld vier keer.
Zet dan de metronoom sneller, ongeveer 5 tikken per minuut en doe het opnieuw. Maak de versnellingen niet te groot en houd je ongeveer aan de drie tot acht tikken per minuut sneller om de strakheid van je spel te behouden. Ga door met versnellen, tot je moe bent (als je bijvoorbeeld kramp in je pols bemerkt), of tot je merkt dat je het niet meer strak kunt bijhouden.

Als je dit dagelijks, of in ieder geval regelmatig doet, zul je merken dat je steeds sneller wordt en op hogere snelheden nog steeds strak mee kunt spelen. Ook zul je door het oefenen met metronoom merken dat je strakker gaat spelen Voel je vrij om het patroon te veranderen en bijvoorbeeld ook andere technieken erin te verwerken.

Probeer bijvoorbeeld eens dit patroon
Bij dit patroon valt op dat elke keer een snaar overgeslagen wordt. Dit lijkt op lage snelheden simpel, maar het is de truuk om ook op hogere snelheden een snaar over te slaan, zonder de tussenliggende snaar te raken.

E|------------------------------------12-13-14-15-
B|------------------------12-13-14-15-------------
G|------------------------------------------------
D|------------12-13-14-15-------------------------
A|------------------------------------------------
E|12-13-14-15-------------------------------------

E|------------------------
B|------------------------
G|12-13-14-15-------------
D|------------------------
A|------------12-13-14-15-
E|------------------------

Deze techniek valt ook wel te integreren in je solo-spel.
Waar je dan op moet letten is dat de eerste noot van de 'vier-reeksjes', samenvalt met een noot die in het akkoord past.
Als je bijvoorbeeld in E-mineur speelt, moet je van elke snaar steeds de twaalfde fret spelen. Het klinkt alleen niet bij langzame stukken, maar in bijvoorbeeld een stevig rocknummer, waar je met een scheurende gitaar een solo over speelt, kun je er snelle chromatische stukjes doorheen spelen om je publiek te impressen!

Ik hoop dat je hier iets aan hebt!

met chromatische groet,
Justin

Claim nu je gratis 30 dagen gratis online gitaarles

Gitaarles vragen, suggesties en opmerkingen

robvroomen

Robvroomen 2011-03-18 17:03:30 / Reply

je leert ook snel om over te pakken.
met gewoon akkoorden door mel kaar te oefenen
zo leer ik het ook !.
Groetjes pimpimpimpim


Bonno

Bonno 2010-03-26 10:03:24 / Reply

je kunt ook gewoon toonladdertjes spelen


mautjuhh

Mautjuhh 2008-09-05 16:09:24 / Reply

nou allemaal geweldig maar dit is voor een bas gitaar Droevig Droevig Droevig en ik heb een gewoone houten 6 snarige niet electrishe gitaar Droevig Droevig Droevig kun je ook zo'n les geven maar dan voor een gewoone houten 6 snarige miet electrishe gitaar?? pls pls pls nou ik zie t wel bye bye mautjuhh


Joost

Joost 2008-03-11 18:03:41 / Reply

Jan, ik denk dat je gewoon het zelfde patroontje dan ergens anders moet gebruiken, dus bijv. dat je begint op de 8e fret o.i.d.


JanH

JanH 2008-03-09 13:03:24 / Reply

Hoi Justin, goede en interessante les bedankt!
Al wat ik wel merk is dat het specifiek is toegespits op na mijn idee een electrisch gitaar Verbaasd Want je speelt van de 12 tot 18de fret.. En dat op mijn accoustisch gitaartje wordt het toch wel krap aan Tong Heb je nog een vergelijkbaar iets voor de accoustisch gitaar? Groetjes en keep up the good work Lachebek Jan