• Streaming gitaar liedjes spelen
  • Leer gitaar spelen & gitaarlessen
  • 75.000 leden
Tokkelen 1/3

Gitaarles: Tokkelen 1/3

In deze les gaan we je leren hoe je kan tokkelen aan de hand van het nummer van Anouk, namelijk Michel

Anouk - Michel
   Dsus2
e|-------0---|
B|-3---3---3-|
G|---2-------|
D|-----------|

   Dsus2        Asus4         G
e|-------0----|--------0----|-------0---|--0-----0-----|
B|-----3---3--|------3---3--|-----3---3-|----3-----3---|
G|---2--------|----2--------|---2-------|2-----2-----2-|
D|-0----------|-------------|-----------|--------------|
A|------------|-0-----------|-----------|--------------|
G|------------|-------------|-3---------|--------------|


Zie ook het volledige nummer van Anouk - Michel

Claim nu je gratis 30 dagen gratis online gitaarles


Download pdf

geen

Download (Gebruik Media Player)

geen

Gitaarles vragen, suggesties en opmerkingen

JanH

JanH 2018-10-14 00:00:00 / Reply

@Rene48 kijk ook even naar deze tabs wellicht geeft dat meer duidelijkheid https://www.gitaartabs.nl/tab/anouk/michel of 

tabt by Jur v/d Tuuk


[Intro/Chorus]


e|----0------0------0------0--|

B|-3-3-3--3-3-3--3-3-3--3-3-3-|

G|--2---2--2---2--2---2--2---2|

D|----------------------------|

A|----------------------------|

E|----------------------------|



e|----0-------0------0---0--0------0------0------0---0--0---|

B|---3-3-----3-3----3-3---3--3----3-3----3-3----3-3---3--3--|

G|--2---2---2---2--2---2---2--2--2---2--2---2--2---2---2--2-|

D|-0----------------------------0---------------------------|

A|---------0---------------------------0--------------------|

E|----------------3---------------------------3-------------|



[Verse]


e|----0-------0------0---0--0--|

B|---3-3-----3-3----3-3---3--3-|

G|--2---2---2---2--2---2---2--2|

D|-0---------------------------|

A|---------0-------------------|

E|----------------3------------|

  Repeat 4x



Rene48

Rene48 2018-03-18 00:00:00 / Reply

Volgens mij kloppen in het leid Michel de aangeslagen snaren niet met de afgedrukte tab.

Er wordt volgens mij met een G begonnen en niet met de D snaar.