Remember

Gitaarliedjes, tabs & akkoorden (chords) Remember - Channing Tatum (the vow movie)

Songtype: Bass-tab

arrow&v

Markeer als favoriet

Favoriet

Gemarkeerd als favoriet

Capo:

0

Channing Tatum (the vow movie)

Channing Tatum (the vow movie)

Song
Album
Categorie

Remember

Downloads
728
Niveau
2
Geplaatst door
shanna
ProTabs-promo.jpg

E|-----------------|------------------|
H|-----1-1-3-3-1-1-|----- 1-1-3-3-1-1-|
G|-----0-0-0-0-0-0-|------0-0-0-0-0-0-|
D|-----2-2-2-2-2-2-|------2-2-2-2-2-2-|
A|---3-------------|-3-2--------------|
E|-----------------|------------------|

E|-----------------|------------------|
H|-----1-1-1-3-1-1-|-----3-3-0-0h3----|
G|-----2-2-2-2-2-2-|-----0-0-0-0------|
D|-----2-2-2-2-2-2-|-----0-0-0-0------|
A|-2-0-------------|------------------|
E|-----------------|---3--------------|

E|-----------------|------------------|
H|-----1-1-3-3-1-1-|----- 1-1-3-3-1-1-|
G|-----0-0-0-0-0-0-|------0-0-0-0-0-0-|
D|-----2-2-2-2-2-2-|------2-2-2-2-2-2-|
A|---3-------------|-3-2--------------|
E|-----------------|------------------|

E|-----------------|------------------|
H|-----1-1-0-1-0-1-|-----3-3-0-0h3----|
G|-----2-2-2-2-2-2-|-----0-0-0-0------|
D|-----2-2-2-2-2-2-|-----0-0-0-0------|
A|-2-0-------------|---3--------------|
E|-----------------|------------------|


E|-----------------|------------------|
H|-----1-1-3-3-1-1-|----- 1-1-3-3-1-1-|
G|-----0-0-0-0-0-0-|------0-0-0-0-0-0-|
D|--3--3-3-3-3-3-3-|--3-2-2-2-2-2-2-2-|
A|-----------------|------------------|
E|-----------------|------------------|

E|-----------------|------------------|
H|-----1-1-1-3-1-1-|-----3-3-0-0h3----|
G|-----2-2-2-2-2-2-|-----0-0-0-0------|
D|-2 ---2-2-2-2-2-2-|-----0-0-0-0------|
A|---0-------------|------------------|
E|-----------------|---3--------------|

E|-----------------|------------------|
H|-----1-1-3-3-1-1-|----- 1-1-3-3-1-1-|
G|-----0-0-0-0-0-0-|------0-0-0-0-0-0-|
D|-----2-2-2-2-2-2-|------2-2-2-2-2-2-|
A|---3-------------|-3-2--------------|
E|-----------------|------------------|

E|-----------------|------------------|
H|-----1-1-0-1-0-1-|-----3-3-0-0h3----|
G|-----2-2-2-2-2-2-|-----0-0-0-0------|
D|-----2-2-2-2-2-2-|-----0-0-0-0------|
A|-2-0-------------|---3--------------|
E|-----------------|------------------|

ProTabs promo.jpg

Onbeperkt en gratis toegang tot alle 25.000
Tabs & Chords en direct meespelen met

Artiest Liedje

...

Gitaarakkoorden Channing Tatum (the vow movie) - Remember

Dankzij de bladmuziek op deze pagina wordt het een stuk makkelijker om met de gitaar mee te spelen met Remember van Channing Tatum (the vow movie) De ProTabs van Gitaartabs worden door onze professionele gitaardocenten samengesteld. De tabs en chords zijn door leden zelf geplaatst. Deze undefined van Channing Tatum (the vow movie) met Remember is voor je geschreven door shanna

Tabs & Chords van Channing Tatum (the vow movie) - Remember

Bij de ProTabs delen we niet alleen de tablatuur maar ook de speelwijze van Remember Met een beetje gitaar ervaring moet je dit gitaarliedje zeker kunnen spelen, maar als het niet lukt zijn we er altijd om je te helpen. Door een gratis account aan te maken krijg je niet alleen toegang tot deze bass-tab ,akkoorden & tabs van Remember maar kun je ook onbeperkt meespelen met een van de meer dan 25.000 andere tabs & chords in onze database.

Plaats opmerking

Beoordeel deze song

Rate UsDon’t love itNot greatGoodGreatLove itRate Us

Bedankt voor je beoordeling!