I will keep my head down

Gitaarliedjes, tabs & akkoorden (chords) I will keep my head down - kane

Songtype: Chords

arrow&v

Markeer als favoriet

Favoriet

Gemarkeerd als favoriet

Capo:

0

kane

kane

Song
Album
Categorie

I will keep my head down

Downloads
1946
Niveau
1
Geplaatst door
gitaartabs
ProTabs-promo.jpg

I will keep my head down

[Intro]
Esus2 B/G B5 C5 (4x)


riff1a
e--------------------------------
B--------------------------------
G---------------------0-------0--
D-----4-------4-----4-------5----
A---2-------2-----2-------3------
E-0-------3----------------------
Esus2 B/G B5 C5

riff1b
e--------------------------------
B--------------------------------
G---------------------0---0------
D-----4-------4-----4-----5------
A---2-------2-----2-------3------
E-0-------3----------------------
Esus2 B/G B5 C5


Esus2 B/G
Come down, closer
B5 C5
I know this is everlasting
Esus2 B/G B5 C5
Somehow closer along the way

Esus2 B/G
So much, now this
B5 C5
And I feel worse than I have ever felt
Esus2 B/G B5 C5
And I know you say you'll find a way

[Pre-chorus]

Riff2a
e------7--7----3---3-----5---5--5--5---
B-7h8--8--8----3---3-----5---5--5--5---
G-7h9--9--9----5---5-----7---7--7--7---
D-7h9--9--9----5---5-----7---7--7--7---
A------7--7----3---3-----5---5--5--5---
E--------------------------------------
Em Csus2 Dsus2

Riff2b
e-0------------3---3-----5-------------
B--0-----------3---3-----5-------------
G---0----------5---5-----7---7--7--7---
D----2---------5---5-----7---7--7--7---
A-----2--------3---3-----5---5--5--5---
E------0-------------------------------
Em Csus2 Dsus2


Em Csus2 Dsus2
And I will pray for you
Em Csus2 Dsus2
I will keep my head down

[Chorus]
A5 C5
And I will keep my head down and I'll follow
A5 C5
Keep my head down and I'll follow
A5 C5 Em
Keep my head down, I will keep my head down


Riff3
e------------
B------------
G------------
D---------0--
A-------2----
E-0-2-3------



Riff3 Bm
For___ you
Em Riff3 Bm
Keep my head down

Esus2 B/G
My will is empty
B5 C5
I'm counting ev'ry minute ev'ry hour ev'ry day
Esus2 B/G B5 C5
And I see you slowly fade along the way (so come on)

Esus2 B/G
Come down, closer
B5 C5
I know this is everlasting
Esus2 B/G B5 C5 / / //
I know you say you'll find a way

[Pre-chorus]
Em Csus2 Dsus2
I will stay - but you ooohhh
Em Csus2 Dsus2
I will keep my head down for you
[Chorus]
A5 C5
And I will keep my head down and I'll follow
A5 C5
Keep my head down and I'll follow
A5 C5 Em
Keep my head down, I will keep my head down
Riff3 Bm
For___ you I will
Em Riff3 Bm
Keep my head down for you Come on

[Solo]
Em Riff3 Bm (4x)

G---------------2h4p2~~~~~~---------2h4p2-0----
D-2~~~~~~-2-4-5-------------2-2-4-5----------2-
A----------------------------------------------
E----------------------------------------------

e--------5h7p5-3/5~~~~~~~~~~~~~---5-5---5-5----
B-5-5-8---------------------------8-8---8-8----

e-/12-12--/14-14--/15-15--17h18p17-15-17~~~~---
B----------------------------------------------

Fast (improvise)
e-------------------------...
B----------12-13-15-13-12-...
G-12-14-15----------------...

e----------------------------------------------
B----------------------------------------------
G------------------12-14b16r14-12-14~~~~~~~~---
D------------14-14-----------------------------
A-14~~~~~~~------------------------------------
E----------------------------------------------



[Bridge]
Csus2 Dsus2
And though I'm spinning and I can't sleep, these thoughts around me
Em F
When all I've given you means nothing, nothing
Csus2 Dsus2
And though I'm spinning and I can't sleep
A5 G5 F#5 G5 Em
I cannot bring you back

Esus2 B/G
So stream on, through me
B5 C5
I know this is everlasting
Esus2 B/G B5 C5 / / / / / / //
Words mean so much along the way

[Chorus]
A5 C5
And I will keep my head down and I'll follow
A5 C5
Keep my head down and I'll follow
A5 A5 C5 Em
Keep my head down, I will keep my head down
Riff3 Bm
For___ you I will
Em Riff3 Bm
Keep my head down for you I will
Em Riff3 Bm
Keep my head down___ for you I, I said I will
Em Riff3 Bm
Keep my head down___ yeah yeah yeah yeah yeah yeah
Em Riff3 Bm
Em Riff3 Bm
I will - I will - I will
Em Riff3 Bm
I will yeah
Em Riff3 Bm
Keep my head down for you


Chords:
Esus2 024xxx
B/G 324xxx
B5 x240xx
C5 x350xx
Em 022000 / x79987
Csus2 x35533
Dsus2 x57755
A5 x022xx
Bm x24432
F 133211
G5 35xxxx
F#5 24xxxx

ProTabs promo.jpg

Onbeperkt en gratis toegang tot alle 25.000
Tabs & Chords en direct meespelen met

Artiest Liedje

...

Gitaarakkoorden kane - I will keep my head down

Dankzij de bladmuziek op deze pagina wordt het een stuk makkelijker om met de gitaar mee te spelen met I will keep my head down van kane De ProTabs van Gitaartabs worden door onze professionele gitaardocenten samengesteld. De tabs en chords zijn door leden zelf geplaatst. Deze undefined van kane met I will keep my head down is voor je geschreven door gitaartabs

Tabs & Chords van kane - I will keep my head down

Bij de ProTabs delen we niet alleen de tablatuur maar ook de speelwijze van I will keep my head down Met een beetje gitaar ervaring moet je dit gitaarliedje zeker kunnen spelen, maar als het niet lukt zijn we er altijd om je te helpen. Door een gratis account aan te maken krijg je niet alleen toegang tot deze chords ,akkoorden & tabs van I will keep my head down maar kun je ook onbeperkt meespelen met een van de meer dan 25.000 andere tabs & chords in onze database.

Plaats opmerking

Beoordeel deze song

Rate UsDon’t love itNot greatGoodGreatLove itRate Us

Bedankt voor je beoordeling!