The thunder rolls

Gitaarliedjes, tabs & akkoorden (chords) The thunder rolls - rob de nijs

Songtype: Chords

arrow&v

Markeer als favoriet

Favoriet

Gemarkeerd als favoriet

Capo:

0

rob de nijs

rob de nijs

Song
Album
Categorie

The thunder rolls

Downloads
398
Niveau
1
Geplaatst door
gitaartabs
ProTabs-promo.jpg

The Thunder Rolls

intro: Dm (Just Pick It)


Dm Bb
Three-thirty in the morning, not a soul in sight

A Dm
The city's lookin' like a ghost town on a moonless summer night

Dm Bb
Raindrops on the windshield, there's a storm moving in

A Dm
He's headin' back from somewhere that he never should have been

C C/B A Dm
And the thunder rolls, and the thunder rolls

W/Slide *FeedBack*
|-------------|---------------------------------
|-------------|---------------------------------
|-------------|-7--------(7)\\------------------
|-------5//7--|-7--------(7)\\------------------
|-------------|---------------------------------
|-------------|---------------------------------

Every light is burnin', in a house across town
She's pacin' by the telephone in her faded flannel gown

|-----------------|-----------------------------
|-----------------|-----------------------------
|-----9/10\\\\\\9-|--5//7---(7)~~~~~~~~~~-------
|-----------------|-----------------------------
|-----------------|-----------------------------
|-----------------|-----------------------------

Askin' for a miracle, hopin' she's not right
Prayin' it's the weather that's kept him out all night

|-----------------------------------------------
|-----------------------------------------------
|-----------7\\\\\\------5----------------------
|---5/7------------\\\\\\5----------------------
|-----------------------------------------------
|-----------------------------------------------

C C/B A Dm C Dm
And the thunder rolls, and the thunder rolls

CHORUS
Bb C Dm C Dm
And the thunder rolls and the lightnin' strikes

Bb C A G A
Another love grows cold on a sleepless night

|-----------------------------------------------
|--------------12/14----------------------------
|-----12/14-----------12/14~~~~~----------------
|-----------------------------------------------
|-----------------------------------------------
|-----------------------------------------------

Bb C Dm C Dm
As the storm blows on out of control

Bb C Dm
Deep in her heart the thunder rolls


|-10~~~~~~~~~~~~~----------|--------------------
|--------------------------|--------------------
|-------------------10\\\9-|--5////7------------
|------------------------- |--------------------
|--------------------------|--------------------
|--------------------------|--------------------

She's waitin' by the window when he pulls into the drive
She rushes out to hold him thankful he's alive

|-----------------------------------------------
|--10----(10)\\\\\-3----------------------------
|-----------------------------------------------
|-----------------------------------------------
|-----------------------------------------------
|-----------------------------------------------

But on the wind and rain a strange new perfume blows
And the lightnin' flashes in her eyes and he knows that she knows
And the thunder rolls,

|-----------------------------------------------
|-----------------------------------------------
|--5-------4/5---4------2-----------------------
|-----------------------------------------------
|-----------------------------------------------
|-----------------------------------------------
and the thunder rolls

|-------------------6\-------------|------------
|---------------------\5-----------|------------
|--7----5---7-------------7---5~~~-|---7--7--7--
|--7----5---7----------------------|---7--7--7--
|----------------------------------|------------
|----------------------------------|------------

CHORUS
Bb C Dm C Dm
And the thunder rolls and the lightnin' strikes

|-9/10---12/13---10-----------------------------
|----------------10-----------------------------
|-----------------------------------------------
|-----------------------------------------------
|-----------------------------------------------
|-----------------------------------------------

Bb C A G A
Another love grows cold on a sleepless night

|-10/12-----------------------------------------
|--------13/14----------------------------------
|---------------14~~~~--------------------------
|-----------------------------------------------
|-----------------------------------------------
|-----------------------------------------------

Bb C Dm C Dm
As the storm blows on out of control

|--/17------------------------------------------
|-------17/18-----------------------------------
|--------------19~~~~~--------------------------
|-----------------------------------------------
|-----------------------------------------------
|-----------------------------------------------

Bb C Dm
Deep in her heart the thunder rolls


OUTRO
|-10~~~~~~~~~~~~~~~~~~~~~~~---------------------
|-------------------------------10--------------
|-------------------------------------5/7-------
|-----------------------------------------------
|-----------------------------------------------
|-----------------------------------------------

|---------------------------------8/10----------
|------------------------8/10-------------------
|--------------7~~~~~---------------------------
|--5/////7--------------------------------------
|-----------------------------------------------
|-----------------------------------------------

|---(10)\8\5-----------|-----13-----(13)\10-----
|-----------5/6--------|------------------------
|---------------7~~~~--|------------------------
|----------------------|------------------------
|----------------------|------------------------
|----------------------|------------------------

chords used:
E A D G B e
Dm x 5 7 7 6 5
Bb x 1 3 3 1 1
A x 0 2 2 0 0
C x 3 2 0 1 0
C/B x 2 2 0 1 0
G 3 5 5 4 3 3

ProTabs promo.jpg

Onbeperkt en gratis toegang tot alle 25.000
Tabs & Chords en direct meespelen met

Artiest Liedje

...

Gitaarakkoorden rob de nijs - The thunder rolls

Dankzij de bladmuziek op deze pagina wordt het een stuk makkelijker om met de gitaar mee te spelen met The thunder rolls van rob de nijs De ProTabs van Gitaartabs worden door onze professionele gitaardocenten samengesteld. De tabs en chords zijn door leden zelf geplaatst. Deze undefined van rob de nijs met The thunder rolls is voor je geschreven door gitaartabs

Tabs & Chords van rob de nijs - The thunder rolls

Bij de ProTabs delen we niet alleen de tablatuur maar ook de speelwijze van The thunder rolls Met een beetje gitaar ervaring moet je dit gitaarliedje zeker kunnen spelen, maar als het niet lukt zijn we er altijd om je te helpen. Door een gratis account aan te maken krijg je niet alleen toegang tot deze chords ,akkoorden & tabs van The thunder rolls maar kun je ook onbeperkt meespelen met een van de meer dan 25.000 andere tabs & chords in onze database.

Plaats opmerking

Beoordeel deze song

Rate UsDon’t love itNot greatGoodGreatLove itRate Us

Bedankt voor je beoordeling!