Make you feel my love v1

Gitaarliedjes, tabs & akkoorden (chords) Make you feel my love v1 - adele

Songtype: Tab

arrow&v

Markeer als favoriet

Favoriet

Gemarkeerd als favoriet

Capo:

0

adele

adele

Song
Album
Categorie

Make you feel my love v1

Downloads
250
Niveau
2
greatest hits volume iii

Geplaatst door
shanna
ProTabs-promo.jpg

Adele
Make you feel my love

1e couplet
e:---------------------------------------------|-------------------------------------|
a:---------------------------------------------|-------------------------------------|
d:---------------------------------------------|-------------------------------------|
g:-------------------3-3----------------3-3|----------------3-3-3-3--3-3-3|
b;6-6-6-6-3-6-6---6-6-6-4-3-4-----|4-4-4-3-2-3-----------3-------|
e:---------------------------------------------|-------------------------------------|


2e couplet
e:---------------------------------------------|-------------------------------------|
a:---------------------------------------------|-------------------------------------|
d:---------------------------------------------|-------------------------------------|
g:-------------------3-3----------------3-3|----------------3-3-3-3--3-3-3|
b;6-6-6-6-3-6-6---6-6-6-4-3-4-----|4-4-4-3-2-3-----------3-------|
e:---------------------------------------------|-------------------------------------|

Refrein
e:----------------------------------------------------------------------------|-------------------------------------------------------------------|
a:----------------------------------------------------------------------------|-------------------------------------------------------------------|
d:----------------------------------9-9-12-12-12-13-10-10-8-8-|--------------------------------------------12-10-12--8-10|
g:-------------------------------11-----------------------------------------|--------------------------------11---------------------10------|
b:12-12-12-12-12-11-9--------------------------------------------|12-12-12-12-12-11-9----12-12----------------------|
e:----------------------------------------------------------------------------|-------------------------------------------------------------------|

couplet 3
e:-----------------------------------------------------------|----------------------------------------|
a:-----------------------------------------------------------|----------------------------------------|
d:-----------------------------------------------------------|----------------------------------------|
g:-------------------2-2-------------------2--------------|--------------------4-4-4-4-4-4-4|
b;6-6-6-6-3-6-6----0-0-2-3-2-0-0-0-3-2-0-0|4-4-7-4-7-4-7-----------4-------|
e:-----------------------------------------------------------|----------------------------------------|

Instrumentaal

Refrein
e:----------------------------------------------------------------------------|-------------------------------------------------------------------|
a:----------------------------------------------------------------------------|-------------------------------------------------------------------|
d:----------------------------------9-9-12-12-12-13-10-10-8-8-|--------------------------------------------12-10-12--8-10|
g:-------------------------------11-----------------------------------------|--------------------------------11---------------------10------|
b:12-12-12-12-12-11-9--------------------------------------------|12-12-12-12-12-11-9----12-12----------------------|
e:----------------------------------------------------------------------------|-------------------------------------------------------------------|

Couplet 4
e:---------------------------------------------|-------------------------------------|-------------------|
a:---------------------------------------------|-------------------------------------|-------------------|
d:---------------------------------------------|-------------------------------------|-------------------|
g:-------------------3-3----------------3-3|----------------3-3-3-3--3-3-3|3-3-3---3-3-3|
b;6-6-6-6-3-6-6---6-6-6-4-3-4-----|4-4-4-3-2-3-----------3-------|--------3---------|
e:---------------------------------------------|-------------------------------------|-------------------|

ProTabs promo.jpg

Onbeperkt en gratis toegang tot alle 25.000
Tabs & Chords en direct meespelen met

Artiest Liedje

...

Gitaarakkoorden adele - Make you feel my love v1

Dankzij de bladmuziek op deze pagina wordt het een stuk makkelijker om met de gitaar mee te spelen met Make you feel my love v1 van adele De ProTabs van Gitaartabs worden door onze professionele gitaardocenten samengesteld. De tabs en chords zijn door leden zelf geplaatst. Deze undefined van adele met Make you feel my love v1 is voor je geschreven door shanna

Tabs & Chords van adele - Make you feel my love v1

Bij de ProTabs delen we niet alleen de tablatuur maar ook de speelwijze van Make you feel my love v1 Met een beetje gitaar ervaring moet je dit gitaarliedje zeker kunnen spelen, maar als het niet lukt zijn we er altijd om je te helpen. Door een gratis account aan te maken krijg je niet alleen toegang tot deze tab ,akkoorden & tabs van Make you feel my love v1 maar kun je ook onbeperkt meespelen met een van de meer dan 25.000 andere tabs & chords in onze database.

Plaats opmerking

Verstuur

Beoordeel deze song

Rate UsDon’t love itNot greatGoodGreatLove itRate Us

Bedankt voor je beoordeling!