The other side of me

Gitaarliedjes, tabs & akkoorden (chords) The other side of me - anouk

Songtype: Tab

arrow&v

Markeer als favoriet

Favoriet

Gemarkeerd als favoriet

Capo:

0

anouk

anouk

Song
Album
Categorie

The other side of me

together alone

Downloads
1518
Niveau
1
Geplaatst door
matthias busch
ProTabs-promo.jpg

Legend: h = hammer-on
P = pull-off
b = bend the tune a whole step (two frets)
x = muted with the fingers on your left hand while playing the chord
/ = slide from the first note into the second
( )= that's just an echo-effect tone, do not play this note

Tuning : tune your guitar down (a half step) in Eb

Chords used in the Verse : ---------------------
E A D G H E
---------------------
D x 5 7 7 x x
E x 7 9 9 x x
G 3 5 5 x x x

Chords used in the Chorus : ---------------------
E A D G H E
---------------------
C x 3 5 5 x x
D x 5 7 7 7 5
F 1 3 3 2 1 1
Gb 2 4 4 3 2 2
G 3 5 5 4 3 3
a 5 7 7 5 5 5
--------------------------------------------------------------------------------
let's start!

Verse (with Clean Guitar) Chorus (with Distortion Guitar)

E G D E G D
E------------------|------------------|------------------|------------------I
B------------------|------------------|------------------|------------------I
G-9--9-x-x---------|-7--(7)--(7)--(7)-|-9--9-x-x---------|-7--(7)--(7)--(7)-I
D-9--9-x-x-5-5-5-x-|-7--(7)--(7)--(7)-|-9--9-x-x-5-5-5-x-|-7--(7)--(7)--(7)-I
A-7--7-x-x-5-5-5-x-|-5--(5)--(5)--(5)-|-7--7-x-x-5-5-5-x-|-5--(7)--(7)--(7)-I
E----------3-3-3-x-|------------------|----------3-3-3-x-|------------------I

E G D E G D
E------------------|------------------|------------------|------------------I
B------------------|------------------|------------------|------------------I
G-9--9-x-x---------|-7--(7)--(7)--(7)-|-9--9-x-x---------|-7--(7)--(7)--(7)-I
D-9--9-x-x-5-5-5-x-|-7--(7)--(7)--(7)-|-9--9-x-x-5-5-5-x-|-7--(7)--(7)--(7)-I
A-7--7-x-x-5-5-5-x-|-5--(5)--(5)--(5)-|-7--7-x-x-5-5-5-x-|-5--(7)--(7)--(7)-I
E----------3-3-3-x-|------------------|----------3-3-3-x-|------------------I
Do I
E G D E G D
E------------------|------------------|------------------|------------------I
B------------------|------------------|------------------|------------------I
G-9--9-x-x---------|-7----------------|-9--9-x-x---------|-7----------------I
D-9--9-x-x-5-5-5-x-|-7----------------|-9--9-x-x-5-5-5-x-|-7----------------I
A-7--7-x-x-5-5-5-x-|-5----------------|-7--7-x-x-5-5-5-x-|-5----------------I
E----------3-3-3-x-|------------------|----------3-3-3-x-|------------------I
really |know my - self Do I want to se - e
want to


E G D E G D
E------------------|------------------|------------------|------------------I
B------------------|------------------|------------------|------------------I
G-9--9-x-x---------|-7----------------|-9--9-x-x---------|-7----------------I
D-9--9-x-x-5-5-5-x-|-7----------------|-9--9-x-x-5-5-5-x-|-7----------------I
A-7--7-x-x-5-5-5-x-|-5----------------|-7--7-x-x-5-5-5-x-|-5----------------I
E----------3-3-3-x-|------------------|----------3-3-3-x-|------------------I
Why I'm |every who's it|to - da - y
wonderin'| morni - ng, gonna be|


E G D E G D
E------------------|------------------|------------------|------------------I
B------------------|------------------|------------------|------------------I
G-9--9-x-x---------|-7----------------|-9--9-x-x---------|-7--(7)--(7)--(7)-I
D-9--9-x-x-5-5-5-x-|-7----------------|-9--9-x-x-5-5-5-x-|-7--(7)--(7)--(7)-I
A-7--7-x-x-5-5-5-x-|-5----------------|-7--7-x-x-5-5-5-x-|-5--(5)--(7)--(7)-I
E----------3-3-3-x-|------------------|----------3-3-3-x-|------------------I
Staring |mirror, come tell|who's|under my skin And...
in the me, that what's


E G D E G D
E------------------|------------------|------------------|------------------I
B------------------|------------------|------------------|------------------I
G-9--9-x-x---------|-7--(7)--(7)--(7)-|-9----------------|-7----------------I
D-9--9-x-x-5-5-5-x-|-7--(7)--(7)--(7)-|-9--------5-------|-7----------------I
A-7--7-x-x-5-5-5-x-|-5--(5)--(7)--(7)-|-7--------5-------|-5----------------I
E----------3-3-3-x-|------------------|----------3-------|------------------I
reason |here for Tell|what is |own true face Tell
they're me my me


E E G a G a
E------------------|--5---------------|--------3---------|-5----------------I
B------------------|--5---------------|--------3---------|-5----------------I
G-9----------------|--5---------------|--------4---------|-5----------------I
D-9--------5-------|--7---------------|--------5---------|-7----------------I
A-7--------5-------|--7---------------|--------5---------|-7----------------I
E----------3-------|--5---------------|--------3---------|-5----------------I
what is |own true face but|-- here I'm the show's|
my hey| I come main


E G a G Gb F C D
E-3----------------|-5----------------|-3-----------3-2--|-1----------------I
B-3----------------|-5----------------|-3-----------3-2--|-1----------------I
G-4----------------|-5----------------|-4-----------4-3--|-2------5---------I
D-5----------------|-7----------------|-5-----------5-4--|-3------5------10-I
A-3----------------|-7----------------|-5-----------5-4--|-3------3------10-I
E-3----------------|-5----------------|-3-----------3-2--|-1-------------8--I
attraction I'm a beautiful creature yeah that's what I am yeah

F C D
E------------------|------------------|------------------|------------------I
B------------------|------------------|------------------|------------------I
G--------5------7--|------------------|------------------|------------------I
D-3------5------7--|------------------|------------------|------------------I
A-3------3------5--|------------------|------------------|------------------I
E-1-------------5--|------------------|------------------|------------------I
that's what I am


That's the first Verse and the first Chorus. There are some little licks
played by a second distortion guitar during the chorus but I'll
concentrate myself in that tab on the rythm guitar. I'm also sure
there's a Wah-Wah in the backround, but he nearly plays the same.

It's really easy to play and I think you won't need much time
to practice it, that's why I'll write down the second Verse and Chorus
just in the Chord-Pro system you can see below.


E G D
E---------------------------------------I
B---------------------------------------I
G-9--9-x-x----------7--7--x-7-x-7-7-7-7-I
D-9--9-x-x-5-5-5-x--7--7--x-7-x-7-7-7-7-I
A-7--7-x-x-5-5-5-x--5--5--x-5-x-5-5-5-7-I
E----------3-3-3-x----------------------I

2.Verse :

E G D
But the other side of me
E G D
I can't explain why I've become
E G D
Negative as can be
E G D
I'm wonderin' where it's coming from
E G D
I know I can't do without it,
E G D
sure makes me what I am
E G D
So I will never stop believin'
E G D
In that I love my-self some day
E G a
In that I love my-self some day

2.Chorus :

G a
But hey here I come
G a
I'm the shows main attraction
G
I'm a beutiful creature
F C D
Yeah that's what I am,
F C D
Hey that's what I am yeah oh no

Solo :

E----------------------------------------------------------------------------I
B-------------------------------------------13------15b17-15-13-12h15--------I
G----------------------------------12----12---------------------------12-----I
D--------------------8/12----12-14----14-------------------------------------I
A----------------------------------------------------------------------------I
E----------------------------------------------------------------------------I
...that's what I am yeah oh no

E------------------------------------------------------17-17/15-12-15--------I
B----------------------------------------------------------------------------I
G------12----14--14-12----12-------------------------------------------------I
D---14----14-14--------14-12-------------------------------------------------I
A---------------------------------10-12-10----10-12--------------------------I
E-------------------------------12----------12-------------------------------I

E----------------------------------------------------------------------------I
B----------------------------------------------------------------------------I
G-14b16-12-12----------------------------------------------------------------I
D-------------------------------------14b16-14b16-14b16-12-14-14b16-12----12-I
A----------------------------------------------------------------------14----I
E----------------------------------------------------------------------------I

ProTabs promo.jpg

Onbeperkt en gratis toegang tot alle 25.000
Tabs & Chords en direct meespelen met

Artiest Liedje

...

Gitaarakkoorden anouk - The other side of me

Dankzij de bladmuziek op deze pagina wordt het een stuk makkelijker om met de gitaar mee te spelen met The other side of me van anouk De ProTabs van Gitaartabs worden door onze professionele gitaardocenten samengesteld. De tabs en chords zijn door leden zelf geplaatst. Deze undefined van anouk met The other side of me is voor je geschreven door matthias busch

Tabs & Chords van anouk - The other side of me

Bij de ProTabs delen we niet alleen de tablatuur maar ook de speelwijze van The other side of me Met een beetje gitaar ervaring moet je dit gitaarliedje zeker kunnen spelen, maar als het niet lukt zijn we er altijd om je te helpen. Door een gratis account aan te maken krijg je niet alleen toegang tot deze tab ,akkoorden & tabs van The other side of me maar kun je ook onbeperkt meespelen met een van de meer dan 25.000 andere tabs & chords in onze database.

Plaats opmerking

Beoordeel deze song

Rate UsDon’t love itNot greatGoodGreatLove itRate Us

Bedankt voor je beoordeling!