Tom waits

Gitaarliedjes, tabs & akkoorden (chords) Tom waits - anouk

Songtype: Tab

arrow&v

Markeer als favoriet

Favoriet

Gemarkeerd als favoriet

Capo:

0

anouk

anouk

Song
Album
Categorie

Tom waits

urban solitude

Downloads
1149
Niveau
3
Geplaatst door
erik järdhage
ProTabs-promo.jpg

song: Tom Waits
artist: Anouk
tab: Date: saturday 15 jan 2000
From: Erik Järdhage <jardhagerik@hotmail.com>
Subjekt: "Tom Waits" by Anouk from the album "Urban Solitude"


general comments
This tab is pritty long but its mostly the same after you have learned the beginning, after the chorus its only repitation but its still werth locking through the hole tab (i think).
e|--------------------|--------4--4-----4--|
b|-----------------0--|--------5--5--4--5--|
g|-----------1--------|--------6--6--6--6--|
d|--------2-----2-----|-----6--------6--6--|
a|-----2--------------|--4-----------------|
e|--0-----------------|--------------------|




e|--------------------|--------4--4-----4--|
b|-----------------0--|--------5--5--4--5--|
g|-----------1--------|--------6--6--6--6--|
d|--------2-----2-----|-----6--------6--6--|
a|-----2--------------|--4-----------------|
e|--0-----------------|--------------------|




e|--------------------|--------4--4----------|
b|-----------------0--|--------5--5---5/4----|
g|-----------1--------|--------6--6-------6--|
d|--------2-----2-----|-----6----------------|
a|-----2--------------|--4-------------------|
e|--0-----------------|----------------------|
I was dreaming last night
e|--------------------|--------4--4-----4--|
b|-----------------0--|--------5--5--4--5--|
g|-----------1--------|--------6--6--6--6--|
d|--------2-----2-----|-----6--------6--6--|
a|-----2--------------|--4-----------------|
e|--0-----------------|--------------------|
A frigment of my brain

e|--------------------|--------4--4----------|
b|-----------------0--|--------5--5---5/4----|
g|-----------1--------|--------6--6-------6--|
d|--------2-----2-----|-----6----------------|
a|-----2--------------|--4-------------------|
e|--0-----------------|----------------------|
downtown train and we had noware to
e|-----------------|---------------|
b|-----------5--5--|---------------|
g|-----------6--6--|-----------8---|
d|--------7-----7--|--------9------|
a|-----7-----------|-----9---------|
e|--5--------------|--7------------|
go....

e|--------------------|--------4--4----------|
b|-----------------0--|--------5--5---5/4----|
g|-----------1--------|--------6--6-------6--|
d|--------2-----2-----|-----6----------------|
a|-----2--------------|--4-------------------|
e|--0-----------------|----------------------|
So we got of walk
e|--------------------|--------4--4--4----4--|
b|-----------------0--|--------5--5--4--4-5--|
g|-----------1--------|--------6--6--6--6-6--|
d|--------2-----2-----|-----6----------------|
a|-----2--------------|--4-------------------|
e|--0-----------------|----------------------|
in the rain
e|--------------------|--------4--4----------|
b|-----------------0--|--------5--5---5/4----|
g|-----------1--------|--------6--6-------6--|
d|--------2-----2-----|-----6----------------|
a|-----2--------------|--4-------------------|
e|--0-----------------|----------------------|
sad you and you ride it
e|-----------------|-----------------|
b|-----------5--5--|-----------7--7--|
g|-----------6--6--|-----------8--8--|
d|--------7-----7--|--------9-----9--|
a|-----7-----------|-----9-----------|
e|--5--------------|--7--------------|
again please with you




Chorus:
e|-----------------|-----------------|
b|-----------5--5--|-----------7--7--|
g|-----------6--6--|-----------8--8--|
d|--------7-----7--|--------9-----9--|
a|-----7-----------|-----9-----------|
e|--5--------------|--7--------------|
Tom waits for the
e|--------------------|--------4--4--4----4--|
b|-----------------0--|--------5--5--4--4-5--|
g|-----------1--------|--------6--6--6--6-6--|
d|--------2-----2-----|-----6----------------|
a|-----2--------------|--4-------------------|
e|--0-----------------|----------------------|
to take away...
e|-----------------|-----------------|
b|-----------5--5--|-----------------|
g|-----------6--6--|--------------8--|
d|--------7-----7--|--------9--------|
a|-----7-----------|-----9-----9-----|
e|--5--------------|--7--------------|
me Tom waits can´t wait
e|--------------------|--------4--4--4----4--|
b|-----------------0--|--------5--5--4--4-5--|
g|-----------1--------|--------6--6--6--6-6--|
d|--------2-----2-----|-----6----------------|
a|-----2--------------|--4-------------------|
e|--0-----------------|----------------------|
no more

e|--------------------|--------4--4-----4--|
b|-----------------0--|--------5--5--4--5--|
g|-----------1--------|--------6--6--6--6--|
d|--------2-----2-----|-----6--------6--6--|
a|-----2--------------|--4-----------------|
e|--0-----------------|--------------------|




e|--------------------|--------4--4----------|
b|-----------------0--|--------5--5---5/4----|
g|-----------1--------|--------6--6-------6--|
d|--------2-----2-----|-----6----------------|
a|-----2--------------|--4-------------------|
e|--0-----------------|----------------------|
wrappped finger
e|--------------------|--------4--4-----4--|
b|-----------------0--|--------5--5--4--5--|
g|-----------1--------|--------6--6--6--6--|
d|--------2-----2-----|-----6--------6--6--|
a|-----2--------------|--4-----------------|
e|--0-----------------|--------------------|
2 fingers lips
e|--------------------|--------4--4----------|
b|-----------------0--|--------5--5---5/4----|
g|-----------1--------|--------6--6-------6--|
d|--------2-----2-----|-----6----------------|
a|-----2--------------|--4-------------------|
e|--0-----------------|----------------------|
no need cause
e|-----------------|-----------------|
b|-----------5--5--|--------------7--|
g|-----------6--6--|--------------8--|
d|--------7-----7--|--------9-----9--|
a|-----7-----------|-----9-----9-----|
e|--5--------------|--7--------------|
eyes...

e|--------------------|--------4--4----------|
b|-----------------0--|--------5--5---5/4----|
g|-----------1--------|--------6--6-------6--|
d|--------2-----2-----|-----6----------------|
a|-----2--------------|--4-------------------|
e|--0-----------------|----------------------|
when they lights
e|--------------------|--------4--4--4----4--|
b|-----------------0--|--------5--5--4--4-5--|
g|-----------1--------|--------6--6--6--6-6--|
d|--------2-----2-----|-----6----------------|
a|-----2--------------|--4-------------------|
e|--0-----------------|----------------------|
they gave road
e|--------------------|--------4--4----------|
b|-----------------0--|--------5--5---5/4----|
g|-----------1--------|--------6--6-------6--|
d|--------2-----2-----|-----6----------------|
a|-----2--------------|--4-------------------|
e|--0-----------------|----------------------|
we headed tracks never locked
e|-----------------|-----------------|
b|-----------5--5--|--------------7--|
g|-----------6--6--|--------------8--|
d|--------7-----7--|--------9-----9--|
a|-----7-----------|-----9-----9-----|
e|--5--------------|--7--------------|
back be real
Chorus:
e|-----------------|-----------------|
b|-----------5--5--|-----------7--7--|
g|-----------6--6--|-----------8--8--|
d|--------7-----7--|--------9-----9--|
a|-----7-----------|-----9-----------|
e|--5--------------|--7--------------|
Tom waits for the
e|--------------------|--------4--4--4----4--|
b|-----------------0--|--------5--5--4--4-5--|
g|-----------1--------|--------6--6--6--6-6--|
d|--------2-----2-----|-----6----------------|
a|-----2--------------|--4-------------------|
e|--0-----------------|----------------------|
to take away...
e|-----------------|-----------------|
b|-----------5--5--|--------------7--|
g|-----------6--6--|--------------8--|
d|--------7-----7--|--------9-----9--|
a|-----7-----------|-----9-----9-----|
e|--5--------------|--7--------------|
me Tom waits can´t wait
e|--------------------|--------4--4--4----4--|
b|-----------------0--|--------5--5--4--4-5--|
g|-----------1--------|--------6--6--6--6-6--|
d|--------2-----2-----|-----6----------------|
a|-----2--------------|--4-------------------|
e|--0-----------------|----------------------|
no more cant wait




e|--------------------|--------4--4-----4--|
b|-----------------0--|--------5--5--4--5--|
g|-----------1--------|--------6--6--6--6--|
d|--------2-----2-----|-----6--------6--6--|
a|-----2--------------|--4-----------------|
e|--0-----------------|--------------------|
more on downtown
e|--------------------|--------4--4-----4--|
b|-----------------0--|--------5--5--4--5--|
g|-----------1--------|--------6--6--6--6--|
d|--------2-----2-----|-----6--------6--6--|
a|-----2--------------|--4-----------------|
e|--0-----------------|--------------------|
train me and
e|--------------------0-|
b|---------------0------|
g|-----------1----------|
d|--------2-------------|
a|-----2----------------|
e|--0-------------------|
tom waits...

ProTabs promo.jpg

Onbeperkt en gratis toegang tot alle 25.000
Tabs & Chords en direct meespelen met

Artiest Liedje

...

Gitaarakkoorden anouk - Tom waits

Dankzij de bladmuziek op deze pagina wordt het een stuk makkelijker om met de gitaar mee te spelen met Tom waits van anouk De ProTabs van Gitaartabs worden door onze professionele gitaardocenten samengesteld. De tabs en chords zijn door leden zelf geplaatst. Deze undefined van anouk met Tom waits is voor je geschreven door erik järdhage

Tabs & Chords van anouk - Tom waits

Bij de ProTabs delen we niet alleen de tablatuur maar ook de speelwijze van Tom waits Met een beetje gitaar ervaring moet je dit gitaarliedje zeker kunnen spelen, maar als het niet lukt zijn we er altijd om je te helpen. Door een gratis account aan te maken krijg je niet alleen toegang tot deze tab ,akkoorden & tabs van Tom waits maar kun je ook onbeperkt meespelen met een van de meer dan 25.000 andere tabs & chords in onze database.

Plaats opmerking

Beoordeel deze song

Rate UsDon’t love itNot greatGoodGreatLove itRate Us

Bedankt voor je beoordeling!