Trouble

Gitaarliedjes, tabs & akkoorden (chords) Trouble - coldplay

Songtype: Tab

arrow&v

Markeer als favoriet

Favoriet

Gemarkeerd als favoriet

Capo:

0

coldplay

coldplay

Song
Album
Categorie

Trouble

Downloads
1581
Niveau
2
Geplaatst door
[b]lack[a]ngel
ProTabs-promo.jpg



G Gmaj7 G Em G Bm Dm Gmaj7
E|---|---3--------|-|---3--------|-|---3--------|-|-----5-3-2-------|-|
B|---|--7--7-3-0--|-|--7--7-3-0--|-|--7--7-3-3--|-|-----------3--0--|-|
G|-4-|---------0--|-|---------0--|-|---------4--|-|----7---------0--|-|
D|-4-|---------0--|-|---------2--|-|---------4--|-|--------------0--|-|
A|---|------------|-|------------|-|------------|-|-----------------|-|
e|---|------------|-|------------|-|------------|-|-----------------|-|

G Em G Bm
E|---|---3--------|-|---3--------|-|
B|---|--7--7-3-0--|-|--7--7-3-3--|-|
G|-4-|---------0--|-|---------4--|-|
D|-4-|---------2--|-|---------4--|-|
A|---|------------|-|------------|-|
e|---|------------|-|------------|-| X 2

E|-|--------{(7)}--|-|
B|-|---3----{(7)}--|-|
G|-|----4---{(7)}--|-|
D|-|--5------------|-|
A|-|---------------|-|
e|-|---------------|-|

Couplet:

G Em Bm
Oh no I see
F Am G
a spider web is tangled up with me
G Em Bm
And I lost my head
F Am G
and thought of all the stupid things I'd said

(intro 2x)

G Em Bm
Oh no what's this
F Am G
a spider web and I'm caught in the middle
G Em Bm
So I turned to run and
F Am G
thought of all the stupid things i'd done

Refrein:



E|-|-------------------------|-|
B|-|-------------------------|-|
G|-|--(4)/(9)-------(9)/(4)--|-|
D|-|-------------------------|-|
A|-|-------------------------|-|
e|-|-------------------------|-|

A Em
And I never meant to cause you trouble
A Em
Ah I never meant to do you wrong
A Em
Ah well if I ever caused you trouble
A Em
Then no I never meant to do you harm.

Intro

Couplet:

G Em Bm [Figure 1]
Oh no I see
F Am G
a spider web and it's me in the middle
G Em Bm [Figure 1]
so I twist and turn
F Am G
but here am I in my little bubble

Refrein:

A Em
Singing out ah I never meant to cause you trouble
A Em
Ah I never meant to do you wrong
A Em
And ah well if I ever caused you trouble
A Em
Then oh no I never meant to do you harm.

(pause)

Em
E|-|--------|-|
B|-|--------|-|
G|-|--------|-|
D|-|--2-2---|-|
A|-|--------|-|
e|-|--------|-|

G Em Bm G Em Bm G Em Bm G Em Bm
E|-|--3--0--2------|-|--3--0--2------|-|--3--0--2------|-|--3--0--(2)-------|-|
B|-|--0--0--3--2-5-|-|--0--0--3--2-5-|-|--0--0--3--2-5-|-|--0--0--(3)-------|-|
G|-|--0--0--4------|-|--0--0--4------|-|--0--0--4------|-|--0--0--(4)-------|-|
D|-|--0--2--4------|-|--0--2--4------|-|--0--2--4------|-|--0--2--(4)-------|-|
A|-|--2--2--2------|-|--2--2--2------|-|--2--2--2------|-|--2--2--(2)-------|-|
e|-|--3--0--X------|-|--3--0--X------|-|--3--0--X------|-|--3--0--(X)-------|-|

Einde:

Em F#m G F#m Em
And they spun a web for me
Em F#m G F#m Em
They spun a web for me
Em F#m G F#m Em
And they spun a web for me.

Einde van de piano

Em
E|-|-----------|-|
B|-|-----------|-|
G|-|-----------|-|
D|-|--2-2-2-2--|-|
A|-|-----------|-|
e|-|-----------|-|

G Em Bm G Em Bm G Em Bm G Em Bm
E|-|--3--0--2------|-|--3--0--2------|-|--3--0--2------|-|--3--0--(2)-------|-|
B|-|--0--0--3--2-5-|-|--0--0--3--2-5-|-|--0--0--3--2-5-|-|--0--0--(3)-------|-|
G|-|--0--0--4------|-|--0--0--4------|-|--0--0--4------|-|--0--0--(4)-------|-|
D|-|--0--2--4------|-|--0--2--4------|-|--0--2--4------|-|--0--2--(4)-------|-|
A|-|--2--2--2------|-|--2--2--2------|-|--2--2--2------|-|--2--2--(2)-------|-|
e|-|--3--0--X------|-|--3--0--X------|-|--3--0--X------|-|--3--0--(X)-------|-|
Einde voor de gitaar:

G D G D G D G D
E|-|--<10>--<13>---|-|--<10>--<10>---|-|--<10>--<10>---|-|--<10>--{(10)}------|-|
B|-|--<12>--<14>---|-|--<12>--<10>---|-|--<12>--<10>---|-|--<12>--{(10)}------|-|
G|-|--<12>--<15>---|-|--<12>--<11>---|-|--<12>--<12>---|-|--<12>--{(12)}------|-|
D|-|----0-----0----|-|----0-----0----|-|----0-----0----|-|----0-----0---------|-|
A|-|---------------|-|---------------|-|---------------|-|--------------------|-|
e|-|---------------|-|---------------|-|---------------|-|--------------------|-|



E|-|----------------------|-|
B|-|----------------------|-|
G|-|--(11)--/9-(9)/7-(7)--|-|
D|-|----------------------|-|
A|-|----------------------|-|
e|-|----------------------|-|


Akkoorden: (hierin gebruikt, ik weet dat de namen niet kloppen,,)
G Bm Gmaj7 Em A Am F
E|-|--3--|--2--|--X--|--0--|--0--|--0--|--1--|-|
B|-|--3--|--3--|--0--|--0--|--2--|--1--|--1--|-|
G|-|--4--|--4--|--0--|--0--|--2--|--2--|--2--|-|
D|-|--5--|--4--|--0--|--2--|--2--|--2--|--3--|-|
A|-|--5--|--2--|--X--|--2--|--0--|--0--|--3--|-|
e|-|--3--|--X--|--X--|--0--|--X--|--X--|--1--|-|

ProTabs promo.jpg

Onbeperkt en gratis toegang tot alle 25.000
Tabs & Chords en direct meespelen met

Artiest Liedje

...

Gitaarakkoorden coldplay - Trouble

Dankzij de bladmuziek op deze pagina wordt het een stuk makkelijker om met de gitaar mee te spelen met Trouble van coldplay De ProTabs van Gitaartabs worden door onze professionele gitaardocenten samengesteld. De tabs en chords zijn door leden zelf geplaatst. Deze undefined van coldplay met Trouble is voor je geschreven door [b]lack[a]ngel

Tabs & Chords van coldplay - Trouble

Bij de ProTabs delen we niet alleen de tablatuur maar ook de speelwijze van Trouble Met een beetje gitaar ervaring moet je dit gitaarliedje zeker kunnen spelen, maar als het niet lukt zijn we er altijd om je te helpen. Door een gratis account aan te maken krijg je niet alleen toegang tot deze tab ,akkoorden & tabs van Trouble maar kun je ook onbeperkt meespelen met een van de meer dan 25.000 andere tabs & chords in onze database.

Plaats opmerking

Beoordeel deze song

Rate UsDon’t love itNot greatGoodGreatLove itRate Us

Bedankt voor je beoordeling!