I don't want to be

Gitaarliedjes, tabs & akkoorden (chords) I don't want to be - gavin degraw

Songtype: Tab

arrow&v

Markeer als favoriet

Favoriet

Gemarkeerd als favoriet

Capo:

0

gavin degraw

gavin degraw

Song
Album
Categorie

I don't want to be

Downloads
505
Niveau
2

Geplaatst door
ilse136
ProTabs-promo.jpg

I Don't Want To Be - gavin degraw

Asus2 [ x 0 2 2 0 0 ]
Bsus4 [ x 2 4 4 0 0 ]
G [ 3 2 0 0 3 3 ] or [ x 10 12 12 12 10 ]
D [ x x 0 2 3 2 ] or [ x 5 7 7 7 5 ]
A [ 0 0 2 2 2 0 ]
B [ x 2 4 4 4 2 ] or [ 7 9 9 8 7 7 ]
Bm [ x 2 4 4 3 2 ]
Bsus [ x 2 4 4 2 2 ]
F#m [ 2 4 4 2 2 2 ]
F# [ 2 4 4 3 2 2 ] or [ x 9 11 11 11 9 ]
E [ 0 2 2 1 0 0 ] or [ x 7 9 9 9 7 ]


[Intro]
Gtr1
e|-----------------------|-----------------------|
B|-----------------------|-----------------------|
G|-----------------------|-----------------------|
D|-----------------------|-----------------------|
A|-----------------------|-----------------------|
E|-5-7-5-7-5-7-5-7-5-5-7-|-5-7-5-7-5-7-5-7-5-5-7-|


[Verse]
Gtr1
e|-----------------------|-----------------------|
B|-----------------------|-----------------------|
G|-----------------------|-----------------------|
D|-----------------------|-----------------------|
A|-----------------------|-----------------------|
E|-5-7-5-7-5-7-5-7-5-5-7-|-5-7-5-7-5-7-5-7-5-5~--|

Gtr2 (strummed)
Asus2 Asus2
Bsus4 Bsus4
v ^v v^ ^v v^v^ v ^v v^ ^v v^v^
e|-0-0-------------------|-0-0-------------------|
B|-0-0-------------------|-0-0-------------------|
G|-2/4-------------------|-2/4-------------------|
D|-2/4-------------------|-2/4-------------------|
A|-0/2-------------------|-0/2-------------------|
E|-----------------------|-----------------------|




[Verse 1]
Asus2 Bsus4 Asus2 Bsus4
I don’t need to be anything other than a prison guard’s son
Asus2 Bsus4 Asus2 Bsus4
I don’t need to be anything other than a specialist’s son
Asus2 Bsus4 Asus2 Bsus4
I don’t have to be anyone other than the birth of two souls in one
Asus2 Bsus4 Asus2 Bsus4
Part of where I’m going is knowing where I’m coming from

[Chorus]
G D A Bm A
I don’t want to be anything other than what I’ve been trying to be lately
G D A Bm A
All I have to do is think of me and I have peace of mind
G D A
I’m tired of looking ‘round rooms wondering what I gotta do
Bm A
Or who I’m supposed to be
G D A Bm
I don’t want to be anything other than me

[Verse 2]
Asus2 Bsus4 Asus2 Bsus4
I’m surrounded by liars everywhere I turn
Asus2 Bsus4 Asus2 Bsus4
I’m surrounded by imposters everywhere I turn
Asus2 Bsus4 Asus2 Bsus4
I’m surrounded by identity crisis everywhere I turn
Asus2 Bsus4
Am I the only one to notice?
Asus2 Bsus4
I can’t be the only one who’s learned

[Chorus]

[Bridge (I think they use high barré's here)]
F#m Bsus2 F#m Bm
Can I have everyone’s attention please
F#m Bsus2
If you're not like this and that
F#m Bm
You’re gonna have to leave
E D Bm E D Bm
I came from the mountain, the crust of creation
E D Bm D
My whole situation made from clay to stone
E F# G
And now I’m telling everybody

[Chorus (starts with piano only, same chords)]


[Outro (uses chorus chords)]
I don’t want to be
I don’t want to be me (repeat until fade)

ProTabs promo.jpg

Onbeperkt en gratis toegang tot alle 25.000
Tabs & Chords en direct meespelen met

Artiest Liedje

...

Gitaarakkoorden gavin degraw - I don't want to be

Dankzij de bladmuziek op deze pagina wordt het een stuk makkelijker om met de gitaar mee te spelen met I don't want to be van gavin degraw De ProTabs van Gitaartabs worden door onze professionele gitaardocenten samengesteld. De tabs en chords zijn door leden zelf geplaatst. Deze undefined van gavin degraw met I don't want to be is voor je geschreven door ilse136

Tabs & Chords van gavin degraw - I don't want to be

Bij de ProTabs delen we niet alleen de tablatuur maar ook de speelwijze van I don't want to be Met een beetje gitaar ervaring moet je dit gitaarliedje zeker kunnen spelen, maar als het niet lukt zijn we er altijd om je te helpen. Door een gratis account aan te maken krijg je niet alleen toegang tot deze tab ,akkoorden & tabs van I don't want to be maar kun je ook onbeperkt meespelen met een van de meer dan 25.000 andere tabs & chords in onze database.

Plaats opmerking

Verstuur

Beoordeel deze song

Rate UsDon’t love itNot greatGoodGreatLove itRate Us

Bedankt voor je beoordeling!