Are we the waiting

Gitaarliedjes, tabs & akkoorden (chords) Are we the waiting - green day

Songtype: Tab

arrow&v

Markeer als favoriet

Favoriet

Gemarkeerd als favoriet

Capo:

0

green day

green day

Song
Album
Categorie

Are we the waiting

Downloads
350
Niveau
1

Geplaatst door
muyse012
ProTabs-promo.jpg

A D
e|---------------------------------2-----------2-------|
B|-------2-----------2-----------3---3-------3---3-----|
G|-----2---2-------2---2-------2-------2---2-------2---|
D|---2-------2---2-------2---0-----------0-------------|
A|-0-----------0---------------------------------------|
E|-----------------------------------------------------|

Pre-Chorus:
(This dirty town, is burnin' down, in my dreams)
Fm E D
e|------------------------------------------------------------|
B|---------11---------------9------/7-----7-----------7-------|
G|------10----10----------9---9----/7---7---7-------7---7-----|
D|---10----------10-----9-------9-----7-------7---7-------7---|
A|-9------------------7-------------------------5-------------|
E|------------------------------------------------------------|
^This slide is actually played by
the second guitar, but you can play
it with one.
Order:

Intro:

Intro (Main Riff x1)
Verse (Main Riff x3)
Pre-Chorus x2
Chorus (Main Riff x2)
Verse (Main Riff x3)
Pre-Chorus x2
Outro (Main Riff x5)

Lyrics:

Starry nights city lights
Coming down over me (Verse 1)
Skyscrapers and stargazers
In my head
Are we we are, Are we we are
The waiting unknown

This dirty town was burning down in my dreams (Pre-Chorus)
Lost and found city bound in my dreams

And screaming
Are we we are, Are we we are the waiting (Chorus)
And screaming
Are we we are, Are we we are the waiting

Forget me nots and second thoughts
Live in isolation
Heads or tails and fairytales (Verse 2)
In my mind
Are we we are, Are we we are
The waiting unknown

The rage and love, the story of my life (Pre-Chorus)
The Jesus of suburbia is a lie

And screaming
Are we we are, Are we we are the waiting
And screaming
Are we we are, Are we we are the waiting
(Outro)
Are we we are, Are we we are the waiting
And screaming
Are we we are, Are we we are the waiting

Are we we are, Are we we are the waiting

ProTabs promo.jpg

Onbeperkt en gratis toegang tot alle 25.000
Tabs & Chords en direct meespelen met

Artiest Liedje

...

Gitaarakkoorden green day - Are we the waiting

Dankzij de bladmuziek op deze pagina wordt het een stuk makkelijker om met de gitaar mee te spelen met Are we the waiting van green day De ProTabs van Gitaartabs worden door onze professionele gitaardocenten samengesteld. De tabs en chords zijn door leden zelf geplaatst. Deze undefined van green day met Are we the waiting is voor je geschreven door muyse012

Tabs & Chords van green day - Are we the waiting

Bij de ProTabs delen we niet alleen de tablatuur maar ook de speelwijze van Are we the waiting Met een beetje gitaar ervaring moet je dit gitaarliedje zeker kunnen spelen, maar als het niet lukt zijn we er altijd om je te helpen. Door een gratis account aan te maken krijg je niet alleen toegang tot deze tab ,akkoorden & tabs van Are we the waiting maar kun je ook onbeperkt meespelen met een van de meer dan 25.000 andere tabs & chords in onze database.

Plaats opmerking

Verstuur

Beoordeel deze song

Rate UsDon’t love itNot greatGoodGreatLove itRate Us

Bedankt voor je beoordeling!