Wavin' flag (full)

Gitaarliedjes, tabs & akkoorden (chords) Wavin' flag (full) - k'naan

Songtype: Tab

arrow&v

Markeer als favoriet

Favoriet

Gemarkeerd als favoriet

Capo:

0

k'naan

k'naan

Song
Album
Categorie

Wavin' flag (full)

Downloads
238
Niveau
1
wk 2010

Geplaatst door
rvmeelis
ProTabs-promo.jpg

Tabbed by: Richard van Meelis
Email: richard.v.meelis@gmail.com
Tuning: standard

note:
this is a fingerstyle arrangement for K'naan song 'Wavin flag' that I made
nothing too complicated
If you have any suggestions or corrections feel free to contact me throgh
the email I supplied above.

If you want to listen how it is played, you can watch the next link:

http://www.youtube.com/watch?v=L7bt0DKnmNM

Good luck!


**********************************
Legend:
p = pull off

'x' = dead note

'xxxxxx' = palm mute, hit the
sound holl to create drum sound

(ras) = Rasgueado

(strum) = strum insted of pick
********************************

C F Am G
e|0--------0--------3--1--0-----0--------0---| 0--0-------------------|
B|---1--3-----1--1-----------3-----1--3-----3| ------3--1-------------|
G|-------------------------------------------|X2 -----------------------|
D|------------3------------------------------| -----------------------|
A|3-----------------------------0------------| -----------------------|
E|------------------------------------------3| -----------------------|

C G7 Am
e|------------0----------1--------1--0-----------0--------0-------------|
B|1--------3-------1-----0-----------------3-----------------3-----1----|
G|0-----0-------------0--0-----0--------------0--------2--------------2-|
D|---2----------2-----------0-----------0-----------2-----------2-------|
A|3--------3-------------------------------------0-----------0----------|
E|-----------------------3-----------3----------------------------------|

G C F Am
e|---------0------------------------------------------------------------|
B|3-----------3--1--0--1--------1--3--1-----1--------1--3--1-----1------|
G|------0--------------0-----0-----------4--------2-----------4--------2|
D|---0--------------------2--------------------3--------------------2---|
A|---------------------3-----------3--------------------3--------0------|
E|3-----------------------------------------1---------------------------|

F G C Fmaj7
e|----------------------------------------------------------------------|
B|1--3--1-------1--------1--0-----1--1--------3--3-----1-----1--------3-|
G|---------4----------2--------------0-----0--0--0-----------2-----2----|
D|-----------------3-----------0--------2-----------2-----2--3--3-------|
A|---0-------0-----------------------3--------3--3----------------------|
E|--------------1-----------3-------------------------------------------|

Am G C
e|----------------------------------------------------------------------|
B|------1-----1--------3--3-----1-----1--------3--3-----1-----1--------3|
G|---2--------------2-----------------------0-----------------0-----0---|
D|3--------3-----2-----------2-----2-----0-----------0-----0-----2------|
A|------------0--------0--0-----------------------------------3--------3|
E|------------------------------------3--------3--3---------------------|

Fmaj7 Am G7
e|0-----------1-----0-----------------------------------------1-----0---|
B|---------------------3--3--1--------1--------3--3-----1--------------3|
G|------0--------2-----------------2--------2---------------------------|
D|---2-----2--3-----------------3--------2-----------2-----2-----0------|
A|------------------------------------0--------0--0---------------------|
E|------------------------------------------------------------3---------|

Fmaj7 Am G7
e|0--1-----0-----0----------1-----0-----0--------1-----0-----0----------|
B|------------3-------1--------------3--------1-----------3--------1--1-|
G|-----------------2-----2----------------------------------------------|
D|---3--3----------------------2-----------2--------0-----------0-------|
A|--------------------------0-------------------------------------------|
E|-----------------------------------------------3----------------------|

C F
e|---------0-----------------------------0--x--------------0--x---------|
B|---1--3--------------------1--1--3--3-----x--0--1--1--3-----x--0--1--1|
G|0--0-----------0-----0-----0--0--0--0-----x-----2--2--------x---------|
D|------------2-----------2-----------------x-----------------x---------|
A|---3--------------3--------3--3--3--3-----x-----------------x-----0--0|
E|------------------------------------------x-----1--1--------x---------|

G C G C
e|--------x-------------------x-----------0-----------------------0-----|
B|3--3p1--x--0--1--1--3--3p1--x--0--1--3-----------------1--3--3-----1--|
G|--------x-------------------x-----0-----------0-----0--------------0--|
D|--------x-------------------x--------------2-----2--------------------|
A|0--0----x-------------------x-----3--------------------------------3--|
E|--------x-----3--3----------x-----------------------------3--3--------|

G C
e|---------------0----------------------0--------------------------0--x-|
B|------1--3--3----------------1--3--3-----1--------1--1--1--3--3-----x-|
G|---0-----0--0-------0-----0--------------0-----0-----0--0-----------x-|
D|2----------------2-----2--------------------2-----------------------x-|
A|---------3--3----------------------------3-----------3--3-----------x-|
E|--------------------------------3--3--------------------------------x-|

F G C(ras) G7(ras)
e|------------0--x-----1--0--------------3--3--0--------0-----0-----1--1|
B|0--1--1--3-----x--0--------3--3--1--0-----------3--1--1--3-----1--0---|
G|---2--2--------x--------------------------------------0-----------0---|
D|---------------x--------------------------------------2-----------0---|
A|---------------x-----0--------------------------------3-----------2---|
E|---1--1--------x-----------------------3--------------------------3---|

Am(ras) G(ras) C F
e|0----0--0--------x--0-------------------------------------------------|
B|--3--1-----3--1--1-----3--1--0--1--1--------1--3--1--------1--------1-|
G|-----2-----------0-----------------0-----0-----------4-----2-----2----|
D|-----2-----------0--------------------2-----------------2-----3-------|
A|-----0-----------2-----------------3-----------3----------------------|
E|-----------------3-----------------------------------------1----------|

Am F G C
e|---------------------------------------------------------------------x|
B|3--1--------1--------1--3--1--------1--------1--0-----1--1--1--3--3p1x|
G|------4-----------2-----------4-----------2--------------0--0--0--0--x|
D|---------3-----2-----------------2-----3-----------0-----------------x|
A|3-----------0-----------0--------------------------------3--3--3--3--x|
E|------------------------------------1-----------3--------------------x|

F Am G C Fmaj7
e|------------x--------------------------------x-------------0--x-------|
B|1--1--3--3p1x--1--1--3--3--1--1--1--1--3--3p1x--0--1--1--3----x--0--1-|
G|2--2--2--2--x--2--2--2--2--2--2--0--0--0--0--x-----0--0-------x-----2-|
D|------------x--------------------------------x----------------x-----3-|
A|------------x--0--0--0--0--0--0--------------x-----3--3-------x-------|
E|1--1--1--1--x--------------------3--3--3--3--x----------------x-------|

Am G C Fmaj7
e|------0--x-----1--0-----------3--0--------x---3--0-----0-----3--0-----|
B|1--3-----x--0--------3--3--1--------3--3p1x0--------3-----1--------3--|
G|2--------x--------------------0-----------x---------------------------|
D|3--------x--------------------------------x------------------3--------|
A|---------x-----0--------------------------x---3-----------------------|
E|---------x--------------------3-----------x---------------------------|

Am G C F
e|0-----3--0-----0-----3--0-----0-----------------0--x--------------0--x|
B|---1--------3-----1--------3-----1--1--1--3--3-----x--0--1--1--3-----x|
G|------------------------------------0--0--0--0-----x-----2--2--------x|
D|---------------------------------------------------x-----------------x|
A|------0-----------------------------3--3--3--3-----x-----------------x|
E|---------------------3-----------------------------x-----1--1--------x|

G(strum) C G C
e|1--0-----------3--3--0-----------------0-----------------------0------|
B|------3--3--1--0--0-----3--1-----1--3-----------------1--3--3-----1---|
G|---------------0--0-----------0--0-----------0-----0-----0--0-----0---|
D|---------------0--0-----------------------2-----2--------------------2|
A|0--------------2--2--------------3--------------------------------3---|
E|---------------3--3--------------------------------------3--3---------|

G C C
e|------------0-----------------------0--------------------------0--x---|
B|---1--3--3-----------------1--3--3-----1--------1--1--1--3--3-----x---|
G|0-----0--0--------0-----0-----0--0-----0-----0-----0--0--0--0-----x---|
D|---------------2-----2--------------------2-----------------------x---|
A|------3--3-----------------------------3-----------3--3--3--3-----x---|
E|------------------------------3--3--------------------------------x---|

F G C(ras) G7(ras)
e|------------0--x-----1--0--------------3--3--0--------0-----0-----1--1|
B|0--1--1--3-----x--0--------3--3--1--1-----------3--1--1--3-----1--0---|
G|---2--2--------x--------------------------------------0-----------0---|
D|---------------x--------------------------------------2-----------0---|
A|---------------x-----0--------------------------------3-----------2---|
E|---1--1--------x-----------------------3--3-----------------------3---|

Am(ras) G(ras) C F
e|0----0--0--------x--0-------------------------------------------------|
B|--3--1-----3--1--1-----3--1--0--1--1--------1--3--1--------1--------1-|
G|-----2-----------0-----------------0-----0-----------4-----2-----2----|
D|-----2-----------0--------------------2-----------------2-----3-------|
A|-----0-----------2-----------------3-----------3----------------------|
E|-----------------3-----------------------------------------1----------|

Am F C
e|---------------------------------------------------------------------0|
B|3--1--------1--------1--3--1--------1--------1--3--1-----1--------3---|
G|------4-----------2-----------4-----------2-----------4--0-----0------|
D|---------3-----2-----------------2-----3--------------------2---------|
A|3-----------0-----------0-----------------------3--------3--------3---|
E|------------------------------------1---------------------------------|

G7 Am G
e|---------1--------1--0-----------0--------0-----------------------0---|
B|---1-----0-----------------3-----------------3-----1-----3-----------3|
G|------0--0-----0--------------0--------2-----------------------0------|
D|2-----------0-----------0-----------2-----------2-----2-----0---------|
A|---------------------------------0--------0---------------------------|
E|---------3--------3--------------------------------------3------------|

C F Am
e|----------------------------------------------------------------------|
B|1--0--1--------1--3--1--------1--------1--3--1--------1--------1--3--1|
G|------0-----0-----------4-----2-----2-----------4-----------2---------|
D|---------2-----------------2-----3-----------------3-----2------------|
A|------3-----------3-----------------------3-----------0-----------0---|
E|------------------------------1---------------------------------------|

F C(strum)
e|---------------------------0--0-----0-----0-----0-----0--0--0-0-0--0-0|
B|------1--------1--3--1-----------3-----3-----3-----3--1--1--1-1-1-----|
G|4-----------2-----------4-----------------------------0--0--0-0-0-----|
D|---2-----3--------------------------------------------2--2--2-2-2-----|
A|------------------3-----------------------------------3--3--3-3-3-----|
E|------1---------------------------------------------------------------|

F(strum) Am(strum)
e|---0-----0-----0-----x--x--x-x-x--0--0-----0-----0-----0-----0--0--0-0|
B|3-----3-----3-----3--1--1--1-1-1--------3-----3-----3-----3--1--1--1-1|
G|---------------------2--2--2-2-2-----------------------------2--2--2-2|
D|---------------------3--3--3-3-3-----------------------------2--2--2-2|
A|---------------------3--3--3-3-3-----------------------------0--0--0-0|
E|---------------------1--1--1-1-1--------------------------------------|

Am(Strum) C G
e|--0-0-0-0-0----------------------------------------0------------------|
B|--1-1-1-1-1-3--1--------1-----3--1--------1-----3-----3---------------|
G|--2-2-2-2-2----------2-----------0-----0------------------------------|
D|--2-2-2-2-2-------2--------2--------2--------2------------------------|
A|--0-0-0-0-0----0--------0--------3------------------------------------|
E|------------------------------------------------3---------------------|

C G7 Am
e|------------0----------1--------1--0-----------0--------0-------------|
B|1--------3-------1-----------------------3-----------------3-----1----|
G|0-----0-------------0--------0--------------0--------2--------------2-|
D|---2----------2-----------0-----------0------------2-----------2------|
A|3--------3-------------------------------------0-----------0----------|
E|-----------------------3-----------3----------------------------------|

G C F Am
e|---------0------------------------------------------------------------|
B|3-----------3--1--0--1--------1--3--1-----1--------1--3--1-----1------|
G|------0--------------0-----0-----------4--------2-----------4--------2|
D|---0--------------------2--------------------3--------------------2---|
A|---------------------3-----------3--------------------3--------0------|
E|3-----------------------------------------1---------------------------|

F G C
e|----------------------------------------------------------------------|
B|1--3--1-------1--------1--0-----1--1--------3--3-----1----------------|
G|---------4----------2--------------0-----0--0--0-----------0-----0----|
D|-----------------3-----------0--------2-----------2-----2-----2-----2-|
A|---0-------0-----------------------3--------3--3----------------------|
E|--------------1-----------3-------------------------------------------|

Fmaj7 Am
e|----------------------------------------------------------------------|
B|1--------3--3-----1-----------------1--------3--3-----1---------------|
G|2-----2--2--2-----------2-----2-----2-----2--2--2-----------2-----2---|
D|3--3-----3--3--3-----3-----3-----3--2--2-----------2-----2-----2-----2|
A|------------------------------------0--------0--0---------------------|
E|----------------------------------------------------------------------|

G C G C
e|-----0--------------------------------0-----------0-------------------|
B|3-------3--1--0--1-----1--0--0-----3-----3--1--0--1-------------------|
G|0----------------0--------------2-----------------0-------------------|
D|--------------------------------------------------2-------------------|
A|-----------------3--3-----2-----0-----------------3-------------------|
E|3----------------------------------3----------------------------------|

ProTabs promo.jpg

Onbeperkt en gratis toegang tot alle 25.000
Tabs & Chords en direct meespelen met

Artiest Liedje

...

Gitaarakkoorden k'naan - Wavin' flag (full)

Dankzij de bladmuziek op deze pagina wordt het een stuk makkelijker om met de gitaar mee te spelen met Wavin' flag (full) van k'naan De ProTabs van Gitaartabs worden door onze professionele gitaardocenten samengesteld. De tabs en chords zijn door leden zelf geplaatst. Deze undefined van k'naan met Wavin' flag (full) is voor je geschreven door rvmeelis

Tabs & Chords van k'naan - Wavin' flag (full)

Bij de ProTabs delen we niet alleen de tablatuur maar ook de speelwijze van Wavin' flag (full) Met een beetje gitaar ervaring moet je dit gitaarliedje zeker kunnen spelen, maar als het niet lukt zijn we er altijd om je te helpen. Door een gratis account aan te maken krijg je niet alleen toegang tot deze tab ,akkoorden & tabs van Wavin' flag (full) maar kun je ook onbeperkt meespelen met een van de meer dan 25.000 andere tabs & chords in onze database.

Plaats opmerking

Verstuur

Beoordeel deze song

Rate UsDon’t love itNot greatGoodGreatLove itRate Us

Bedankt voor je beoordeling!