Thoughtless

Gitaarliedjes, tabs & akkoorden (chords) Thoughtless - korn

Songtype: Tab

arrow&v

Markeer als favoriet

Favoriet

Gemarkeerd als favoriet

Capo:

0

korn

korn

Song
Album
Categorie

Thoughtless

untouchables

Downloads
1381
Niveau
2
Geplaatst door
gitaartabs
ProTabs-promo.jpg

Moet eigenlijk op een 7-snarige gitaar gespeeld worden, maar deze is getabt voor een zes-snarige.

(speel 3 keer)
E------------------------------------------------------------
B------------------------------------------------------------
G------------------------------------------------------------
D------------------------------------------------------------
A------5----5------5-----5----7----7----7----8888-
E---0---00----00--00---00--00--00-00----------

(speel 2 keer voor het couplet en blijf dan herhalen)
e-------------------------------------------------------------
B-------------------------------------------------------------
G---------6-----7----7----9----9----9---10101010-
D-66666-----7----7----9----9----9---10101010-
A-66666-----5----5----7----7----7----8-8-8-8----
E-4444---00--00--00--00--00-00----------------

(voor het refrein)
E-------------------------------------------
B-------------------------------------------
G-------------------------------------------
D-555666-7--------555666-3----
A-555666-7--------555666-3----
E-444555-1--------555666-1----

refrein
e------------------------------------------------------------------------------------------------------
B------------------------------------------------------------------------------------------------------
G-----------------------------------------------------------------------------------------------------
D-22-2222-22-2222--44-4444-44-4444--33-3333-33-3333-66-6666--
A-22-2222-22-2222--44-4444-44-4444--33-3333-33-3333-66-6666--
E-00-0000-00-0000--22-2222-22-2222--11-1111-11-1111-44-4444--

Tekst
Thumbing through the pages of my fantasies
Pushing all the mercy down, down, down
I wanna see you try to take a swing at me
Come on, gonna put you on the ground, ground, ground

Why are you trying to make fun of me?
You think it's funny?
What the fuck you think it's doing to me?
You take your turn lashing out at me
I want you crying with your dirty ass in front of me

All of my hate cannot be found
I will not be drowned by your thoughtless scheming
So you can try to tear me down
Beat me to the ground
I will see you screaming

Thumbing through the pages of my fantasies
I'm above you, smiling at you, drown, drown, drown
I wanna kill and rape you the way you raped me
And I'll pull the trigger
And you're down, down, down

Why are you trying to make fun of me?
You think it's funny?
What the fuck you think it's doing to me?
You take your turn lashing out at me
I want you crying with your dirty ass in front of me

All of my hate cannot be found
I will not be drowned by your thoughtless scheming
So you can try to tear me down
Beat me to the ground
I will see you screaming

All my friends are gone, they died (gonna take you down)
They all screamed, and cried (gonna take you down)

I've got my body, got my body back against the wall
I've got my body, got my body back against the wall
Gonna take you down

[repeat 2x]

I've got my body, got my body back against the wall
I've got my body, got my body back against the...

All of my hate cannot be found
I will not be drowned by your thoughtless scheming
So you can try to tear me down
Beat me to the ground
I will see you screaming
All of my hate cannot be found
I will not be drowned by your thoughtless scheming
So you can try to tear me down
Beat me to the ground
I will see you screaming

ProTabs promo.jpg

Onbeperkt en gratis toegang tot alle 25.000
Tabs & Chords en direct meespelen met

Artiest Liedje

...

Gitaarakkoorden korn - Thoughtless

Dankzij de bladmuziek op deze pagina wordt het een stuk makkelijker om met de gitaar mee te spelen met Thoughtless van korn De ProTabs van Gitaartabs worden door onze professionele gitaardocenten samengesteld. De tabs en chords zijn door leden zelf geplaatst. Deze undefined van korn met Thoughtless is voor je geschreven door gitaartabs

Tabs & Chords van korn - Thoughtless

Bij de ProTabs delen we niet alleen de tablatuur maar ook de speelwijze van Thoughtless Met een beetje gitaar ervaring moet je dit gitaarliedje zeker kunnen spelen, maar als het niet lukt zijn we er altijd om je te helpen. Door een gratis account aan te maken krijg je niet alleen toegang tot deze tab ,akkoorden & tabs van Thoughtless maar kun je ook onbeperkt meespelen met een van de meer dan 25.000 andere tabs & chords in onze database.

Plaats opmerking

Beoordeel deze song

Rate UsDon’t love itNot greatGoodGreatLove itRate Us

Bedankt voor je beoordeling!