I would stay

Gitaarliedjes, tabs & akkoorden (chords) I would stay - krezip

Songtype: Tab

arrow&v

Markeer als favoriet

Favoriet

Gemarkeerd als favoriet

Capo:

0

krezip

krezip

Song
Album
Categorie

I would stay

Downloads
5246
Niveau
1

Geplaatst door
gitaartabs
ProTabs-promo.jpg

I would stay

Een Bm/G heet natuurlijk officieel een Gmaj7
Intro:
Bm Bm/A Bm/G Bm Bm/A Bm/G
E|-2-----2-----2---2-------2---2---|2-----2-----2---2---------------|
B|---3-----3-----3---3-----2---3---|--3-----3-----3-3---------------|
G|-----4-----4---------4-----------|----4-----4-----4---------------|
D|---------------------------------|--------------------------------|
A|-2-------0-----------------------|2-------0-------5---------------|
E|-----------------3---------------|----------------3---------------|

De coupletten:
Bm Bm/A Bm/G Bm Bm/A Bm/G
E|-2-----2-----2---2-----2---------|2-----2-----2---2-----2---------|
B|---3-----3-----3---3-----3-------|--3-----3-----3---3-----3-------|
G|-----4-----4---------4-----4-----|----4-----4---------4-----4-----|
D|---------------------------------|--------------------------------|
A|-2-------0-----------------------|2-------0-----------------------|
E|-----------------3---------------|----------------3---------------|

In het derde couplet is het misschien mooier om niet meer te 'tokkelen',
maar gewoon het hele acoord steeds te pakken. Als je een beetje
experimenteerd kun je ook het ritme wel uitvogelen... Je hoeft niet het
patroon steeds precies te volgen, Jacqueline wisselt het ook af (en stopt
meestal ook voor het einde van de tweede maat met de begeleiding).

Tijdens de eerste maat van het intsrumentale stukje direct na het eerste
refrein, is het mooier (maar wel lastiger) om het volgende te spelen:

Bm Bm/A Bm/G
E|-2-----2-----2---------------0---|
B|---3-----3-------0---2---3---0---|
G|-----4-----4-----0---2---4-------|
D|-------------------0---0---0---0-|
A|-2-------0-----------------------|
E|-----------------3---3---3---3---|


Voor-Refrein (2x):
Bm D A G
E|-----7-------5-------5-------3---|
B|-----7-------7-------5-------3---|
G|-----7-------7-------6-------4---|
D|-----9-------7-------7-------5---|
A|-----9---5-5-5-------7-------5---|
E|-7-7-7-----------5-5-5---3-3-3---|

Variatie hierop:
Bm D A G
E|-----7-------5-------5-------3---|
B|-----7-------7-------5-------3---|
G|-----7-------7-------6-------4---|
D|-----9-----7-7-------7-------5---|
A|---9-9---5---5-----7-7-----5-5---|
E|-7---7-----------5---5---3---3---|

Eindig de tweede keer op een open G

En het refrein gewoon: Em-D-C (kan zowel open als barre (open klinkt harder,
mooier voor de laatste refreinen)).

Opbouw:
1x Intro
4x Couplet
2x Voor-refrein
4x Refrein met een slagje (goed luisteren, dan kom je er wel uit...)
1x Refrein ieder acoord een keer aanslaan

ProTabs promo.jpg

Onbeperkt en gratis toegang tot alle 25.000
Tabs & Chords en direct meespelen met

Artiest Liedje

...

Gitaarakkoorden krezip - I would stay

Dankzij de bladmuziek op deze pagina wordt het een stuk makkelijker om met de gitaar mee te spelen met I would stay van krezip De ProTabs van Gitaartabs worden door onze professionele gitaardocenten samengesteld. De tabs en chords zijn door leden zelf geplaatst. Deze undefined van krezip met I would stay is voor je geschreven door gitaartabs

Tabs & Chords van krezip - I would stay

Bij de ProTabs delen we niet alleen de tablatuur maar ook de speelwijze van I would stay Met een beetje gitaar ervaring moet je dit gitaarliedje zeker kunnen spelen, maar als het niet lukt zijn we er altijd om je te helpen. Door een gratis account aan te maken krijg je niet alleen toegang tot deze tab ,akkoorden & tabs van I would stay maar kun je ook onbeperkt meespelen met een van de meer dan 25.000 andere tabs & chords in onze database.

Plaats opmerking

Verstuur

Beoordeel deze song

Rate UsDon’t love itNot greatGoodGreatLove itRate Us

Bedankt voor je beoordeling!