I like to move it

Gitaarliedjes, tabs & akkoorden (chords) I like to move it - madagaskar

Songtype: Tab

arrow&v

Markeer als favoriet

Favoriet

Gemarkeerd als favoriet

Capo:

0

madagaskar

madagaskar

Song
Album
Categorie

I like to move it

Downloads
121
Niveau
2

Geplaatst door
gitaardoos
ProTabs-promo.jpg

|-------------------|-------------------|-------------------|-------------------

|-------------------|-------------------|-------------------|-------------------

|-------------------|-------------------|-------------------|-------------------

|--------5-----3--5-|--------5-----3--5-|--------5-----3--5-|--------5-----3--5-

|-3-3-3-3-6-6-5--5--|-3-3-3-3-6-6-5--5--|-3-3-3-3-6-6-5--5--|-3-3-3-3-6-6-5–5––-

|-------------------|-------------------|-------------------|-------------------



-------------------|-------------------|

-------------------|-------------------|

-------------------|-------------------|

-------5-----5-----|--5-----3--5-------|

-3----3-6---5-3----|-3-6-6-5--5--------|

-------------------|-------------------|





|-------------------|-------------------|-------------------|-------------------

|-------------------|-------------------|-------------------|-------------------

|-------------------|-------------------|-------------------|-------------------

|--------5-----3--5-|--------5-----3--5-|--------5-----3--5-|--------5-----3--5-

|-3-3-3-3-6-6-5--5--|-3-3-3-3-6-6-5--5--|-3-3-3-3-6-6-5--5--|-3-3-3-3-6-6-5--5--

|-------------------|-------------------|-------------------|-------------------



-------------------|-------------------|-------------------|-------------------|

-------------------|-------------------|-------------------|-------------------|

------[REST]-------|------[REST]-------|-------------------|-------------------|

-------------------|-------------------|-------5-----5-----|--5-----3--5-------|

-------------------|-------------------|-3----3-6---5-3----|-3-6-6-5--5--------|

-------------------|-------------------|-------------------|-------------------|



|-------------------|-------------------|-------------------|-------------------

|-------------------|-------------------|-------------------|-------------------

|-------------------|-------------------|-------------------|-------------------

|--------5-----3--5-|--------5-----3--5-|--------5-----3--5-|--------5-----3--5-

|-3-3-3-3-6-6-5--5--|-3-3-3-3-6-6-5--5--|-3-3-3-3-6-6-5--5--|-3-3-3-3-6-6-5--5--

|-------------------|-------------------|-------------------|-------------------



|-------------------|-------------------|-------------------|-------------------

|-------------------|-------------------|-------------------|-------------------

|-------------------|-------------------|-------------------|-------------------

|--------5-----3--5-|--------5-----3--5-|--------5-----3--5-|--------5-----3--5-

|-3-3-3-3-6-6-5--5--|-3-3-3-3-6-6-5--5--|-3-3-3-3-6-6-5--5--|-3-3-3-3-6-6-5--5--

|-------------------|-------------------|-------------------|-------------------



|-------------------|-------------------|-------------------|-------------------

|-------------------|-------------------|-------------------|-------------------

|-------------------|-------------------|-------------------|-------------------

|--------5-----3--5-|--------5-----3--5-|--------5-----3--5-|--------5-----3--5-

|-3-3-3-3-6-6-5--5--|-3-3-3-3-6-6-5--5--|-3-3-3-3-6-6-5--5--|-3-3-3-3-6-6-5--5--

|-------------------|-------------------|-------------------|-------------------



|-------------------|-------------------|-------------------|-------------------

|-------------------|-------------------|-------------------|-------------------

|-------------------|-------------------|-------------------|-------------------

|--------5-----3--5-|--------5-----3--5-|--------5-----3--5-|--------5-----3--5-

|-3-3-3-3-6-6-5--5--|-3-3-3-3-6-6-5--5--|-3-3-3-3-6-6-5--5--|-3-3-3-3-6-6-5--5--

|-------------------|-------------------|-------------------|-------------------



-------------------|-------------------|

-------------------|-------------------|

-------------------|-------------------|

--------5-----3--5-|--------5-----3--5-|

-3-3-3-3-6-6-5--5--|-3-3-3-3-6-6-5--5--|

-------------------|-------------------|




ProTabs promo.jpg

Onbeperkt en gratis toegang tot alle 25.000
Tabs & Chords en direct meespelen met

Artiest Liedje

...

Gitaarakkoorden madagaskar - I like to move it

Dankzij de bladmuziek op deze pagina wordt het een stuk makkelijker om met de gitaar mee te spelen met I like to move it van madagaskar De ProTabs van Gitaartabs worden door onze professionele gitaardocenten samengesteld. De tabs en chords zijn door leden zelf geplaatst. Deze undefined van madagaskar met I like to move it is voor je geschreven door gitaardoos

Tabs & Chords van madagaskar - I like to move it

Bij de ProTabs delen we niet alleen de tablatuur maar ook de speelwijze van I like to move it Met een beetje gitaar ervaring moet je dit gitaarliedje zeker kunnen spelen, maar als het niet lukt zijn we er altijd om je te helpen. Door een gratis account aan te maken krijg je niet alleen toegang tot deze tab ,akkoorden & tabs van I like to move it maar kun je ook onbeperkt meespelen met een van de meer dan 25.000 andere tabs & chords in onze database.

Plaats opmerking

Verstuur

Beoordeel deze song

Rate UsDon’t love itNot greatGoodGreatLove itRate Us

Bedankt voor je beoordeling!