Rewind the film

Gitaarliedjes, tabs & akkoorden (chords) Rewind the film - manic street preachers (feat. Richard Hawley)

Songtype: Tab

arrow&v

Markeer als favoriet

Favoriet

Gemarkeerd als favoriet

Capo:

0

manic street preachers (feat. Richard Hawley)

manic street preachers (feat. Richard Hawley)

Song
Album
Categorie

Rewind the film

Downloads
3290
Niveau
5

Geplaatst door
MSP
ProTabs-promo.jpg

Intro:

D D Bm
e|---------------------|-----------------------|
B|--7--8--7--------10--|--7--8--7-----12--12---|
G|-----------9--7------|-----------9-----------|
D|------------------7--|---------------9---9---|
A|---------------------|-----------------------|
E|---------------------|-----------------------|

D D Bm
e|---------------------|-------------------|
B|--7--8--7--------10--|--7--8--7-----12---|
G|-----------9--7------|-----------9-------|
D|------------------7--|---------------9---|
A|---------------------|-------------------|
E|---------------------|-------------------|

Bm
e|------------------------------|
B|--12-------------12--12-------|
G|------------------------------|
D|---9--11--12--11--9---9-------|
A|------------------------------|
E|------------------------------|

Bm F#
e|------------------------------|
B|--12--------------------------|
G|------------------11--11------|
D|---9--11--12--11--------------|
A|-------------------9---9------|
E|------------------------------|

Bm F#
e|-----------------------------|
B|--12-------------12----------|
G|---------------------11------|
D|---9--11--12--11--9----------|
A|----------------------9------|
E|-----------------------------|

Bm A Bm
e|-----------------------------|
B|--12-------------10--12------|
G|-----------------------------|
D|---9--11--12--11--7---9------|
A|-----------------------------|
E|-----------------------------|

Verse 1:
D
Rewind the film again
D Bm
I'd love to see my joy, my friends
D
Rewind the film again
D Bm
So I can fall asleep content
Bm
Rewind the film once more
Bm F#
Turn back the pages of my books
Bm F#
Rewind the film once more
Bm A Bm
I want the world to see it all

Verse 2:
D
I want to feel small
D Bm
Lying in my mother's arms
D
Playing my old records
D Bm
Hoping that they'll never stop

D
There is too much heartbreak
D Bm
In the nothing of the now
D
I want to see it all
D Bm
Never want to let it go

Bm
Rewind the film once more
Bm F#
Turn back the pages of my books
Bm F#
Rewind the film once more
Bm A Bm
I want the world to see it all

Pre-chorus:

A D A D

Chorus:
Em
Let me hide under the sheets
Bm
And celebrate the boredom
Em
Let me hide under the sheets
F#
With the radio on

Verse 3:
D
Rewind the film again
D Bm
I'd love to see my joy, my friends
D
Rewind the film again
D Bm
So I can fall asleep content


Bm
Rewind the film once more
Bm F#
Turn back the pages of my books
Bm F#
Rewind the film once more
Bm A Bm
I want the world to see it all

Verse 4:
D
I want to feel small
D Bm
Holding on my father's hands
D
Playing broken records
D Bm
Praying that they'll never stop

D
There is too much heartbreak
D Bm
In the nothing of the now
D
I want to see it all
D Bm
Never gonna let you down

Bm
Rewind the film once more
Bm F#
Turn back the pages of my books
Bm F#
Rewind the film once more
Bm A Bm
I want the world to see it all

Pre-chorus:

A D

A
I want the world to see all the love and security
D
My childhood dreams
A
But now I am a busted flush
D
And I am waiting for the night to come

Chorus:
Em
So rewind the film again
Bm
I'd love to see my joy, my friends
Em
Yes, rewind the film again
F# D
So I can fall asleep content

ProTabs promo.jpg

Onbeperkt en gratis toegang tot alle 25.000
Tabs & Chords en direct meespelen met

Artiest Liedje

...

Gitaarakkoorden manic street preachers (feat. Richard Hawley) - Rewind the film

Dankzij de bladmuziek op deze pagina wordt het een stuk makkelijker om met de gitaar mee te spelen met Rewind the film van manic street preachers (feat. Richard Hawley) De ProTabs van Gitaartabs worden door onze professionele gitaardocenten samengesteld. De tabs en chords zijn door leden zelf geplaatst. Deze undefined van manic street preachers (feat. Richard Hawley) met Rewind the film is voor je geschreven door MSP

Tabs & Chords van manic street preachers (feat. Richard Hawley) - Rewind the film

Bij de ProTabs delen we niet alleen de tablatuur maar ook de speelwijze van Rewind the film Met een beetje gitaar ervaring moet je dit gitaarliedje zeker kunnen spelen, maar als het niet lukt zijn we er altijd om je te helpen. Door een gratis account aan te maken krijg je niet alleen toegang tot deze tab ,akkoorden & tabs van Rewind the film maar kun je ook onbeperkt meespelen met een van de meer dan 25.000 andere tabs & chords in onze database.

Plaats opmerking

Verstuur

Beoordeel deze song

Rate UsDon’t love itNot greatGoodGreatLove itRate Us

Bedankt voor je beoordeling!