Old mac donald

Gitaarliedjes, tabs & akkoorden (chords) Old mac donald - old mac donald

Songtype: Tab

arrow&v

Markeer als favoriet

Favoriet

Gemarkeerd als favoriet

Capo:

0

old mac donald

old mac donald

Song
Album
Categorie

Old mac donald

Downloads
976
Niveau
1
Geplaatst door
gitaartabs
ProTabs-promo.jpg

Het is helemaal niet moeilijk als je het liedje kent.

E--------------------0-0---------------------------------0-0------------------------
B-----1-1-1---------------3-3-1---------1-1-1-----------------3-3-1-----------------
G-----------0-2-2-0-----------------0-----------0-2-2-0 ----------------------------
D-----------------------------------------------------------------------------------
E------------------------------------------------------------------------------------

E---------------------------------------------------------------------0-0-----------
B-------1-1-1------1-1-1--11-1--11-1---11-11-1-1----1-1-1-------------------3-3-1--
G---0-0-------0-0------------------------------------------0-2-2-0------------------
D-------------------------------------------------------------------------------------
E--------------------------------------------------------------------------------------

Veel plezier ermee!!!

ProTabs promo.jpg

Onbeperkt en gratis toegang tot alle 25.000
Tabs & Chords en direct meespelen met

Artiest Liedje

...

Gitaarakkoorden old mac donald - Old mac donald

Dankzij de bladmuziek op deze pagina wordt het een stuk makkelijker om met de gitaar mee te spelen met Old mac donald van old mac donald De ProTabs van Gitaartabs worden door onze professionele gitaardocenten samengesteld. De tabs en chords zijn door leden zelf geplaatst. Deze undefined van old mac donald met Old mac donald is voor je geschreven door gitaartabs

Tabs & Chords van old mac donald - Old mac donald

Bij de ProTabs delen we niet alleen de tablatuur maar ook de speelwijze van Old mac donald Met een beetje gitaar ervaring moet je dit gitaarliedje zeker kunnen spelen, maar als het niet lukt zijn we er altijd om je te helpen. Door een gratis account aan te maken krijg je niet alleen toegang tot deze tab ,akkoorden & tabs van Old mac donald maar kun je ook onbeperkt meespelen met een van de meer dan 25.000 andere tabs & chords in onze database.

Plaats opmerking

Beoordeel deze song

Rate UsDon’t love itNot greatGoodGreatLove itRate Us

Bedankt voor je beoordeling!