Close your eyes

Gitaarliedjes, tabs & akkoorden (chords) Close your eyes - Racoon

Songtype: Tab

arrow&v

Markeer als favoriet

Favoriet

Gemarkeerd als favoriet

Capo:

0

Racoon

Racoon

Song
Album
Categorie

Close your eyes

Downloads
966
Niveau
2
Geplaatst door
monique en mys11
ProTabs-promo.jpg

D xx0232
Gmaj7 320002
G6 320030
Cadd9 x32033
Bm7 x24232
Em7 022030
D/F# 2xx232
A x02220


tuning : Eb-Ab-Db-Gb-Bb-Eb

http://www.youtube.com/watch?v=kC3XtTdw3GQ



Intro:
D Gmaj7 D G6
Eb |-------0--2---------------0--2-----------0--2---------------0----|
Bb |----3--------3---------3--------------3-------3----------3----3--|
Gb |----------------2--------------------------------2---------------|
Db |-0---------------------------------0-----------------------------|
Ab |-----------------------------------------------------------------|
Eb |--------------------3---------------------------------3----------|




D Gmaj7
Eb |--------------------0---2------------------------0---2-----|
Bb |----------------3----------3------------------3------------|
Gb |------------------------------2----------------------------|
Db |----------0------------------------------------------------|
Ab |-----------------------------------------------------------|
Eb |---------------------------------------3-------------------|
Lost the things that you thought you would never miss


D G6
Eb |--------------------0---2-------------------------0--------|
Bb |----------------3----------3------------------3------3-----|
Gb |------------------------------2----------------------------|
Db |----------0------------------------------------------------|
Ab |-----------------------------------------------------------|
Eb |--3------------------------------------3-------------------|
Let them out, miss them while they're gone


Bm7 Gmaj7
Eb |-------------------0---2------------------------0---2------|
Bb |----------------3---------3------------------3-------------|
Gb |-----------------------------2-----------------------------|
Db |-0---------------------------------------------------------|
Ab |------------2----------------------------------------------|
Eb |-----3-----------------------------------3-----------------|
But there's memories down here that’ll always live


Bm7 Cadd9
Eb |----------------0---2-----------------------3--3--2--0-----|
Bb |------------3------------3----------------3-------------3--|
Gb |----------------------------2----------0-------------------|
Db |-----------------------------------------------------------|
Ab |---------2------------2----------2---3---------------------|
Eb |---3-------------------------------------------------------|
And they can’t take them away, so they won't


D Gmaj7
Eb |--------0---2-------------------------0---2--------------|
Bb |-----3-----------3-----------------3------------3--------|
Gb |----------------------2----------------------------0-----|
Db |--0------------------------------------------------------|
Ab |---------------------------------------------------------|
Eb |--------------------------------3---------------------3--|
Open this window, let the sickness out


D G6
Eb |--------0---2-------------------------0------------------|
Bb |-----3-----------3-----------------3------3--------------|
Gb |----------------------2-------------------------0--------|
Db |--0------------------------------------------------------|
Ab |---------------------------------------------------------|
Eb |--------------------------------3---------------------3--|
Sleep softly and breath again


Bm7 Gmaj7
Eb |---------0--2---------------------------0--2-------------|
Bb |------3----------3-------------------3-------------------|
Gb |-----------------------2------------------------0--------|
Db |---------------------------------------------------------|
Ab |--2-----------------2------------------------------------|
Eb |---------------------------------3--------------------3--|
If there's a way then it'll find you and help you out


Bm7 Cadd9
Eb |--------0--2---------------------------------3--3-3-3-3--|
Bb |-----3-----------3------------------------3-----3-3-3-3--|
Gb |--------------------2------------------0--------0-0-0-0--|
Db |------------------------------------------------2-2-2-2--|
Ab |--2-----------2--------2---------3--------------3-3-3-3--|
Eb |---------------------------------------------------------|
You're like a circle, there’s no start and no end




Em7 D/F# G
Close your eyes, you might see something beautiful
Em7 D/F# G
’Cause it's not all pitchblack in the back of your mind
Em7 D/F# G
So close your eyes, you might see something prettier
Em7 D/F# G
And you pick a dream right out of the night




Eb |--3-----3--3--2--0----------|
Bb |-----3--------------3-------|
Gb |----------------------------|
Db |----------------------------|
Ab |----------------------------|
Eb |----------------------------|



D Gmaj7
Eb |--------------------0---2---------------------0---2-------|
Bb |----------------3----------3---------------3---------3----|
Gb |------------------------------2---------------------------|
Db |----------0--------------------------------------------0--|
Ab |----------------------------------------------------------|
Eb |------------------------------------3---------------------|
And change I wish for I will, cause it's gonna work

D G6
Eb |--------------------0---2-------------------------0-------|
Bb |----------------3----------3------------------3------3----|
Gb |------------------------------2---------------------------|
Db |----------0-----------------------------------------------|
Ab |----------------------------------------------------------|
Eb |--3------------------------------------3----------------3-|
You can do this, it's your life

Bm7 Gmaj7
Eb |-------------------0---2------------------------0---2------|
Bb |----------------3---------3------------------3-------------|
Gb |--------------------------------2--------------------------|
Db |-0---------------------------------------------------------|
Ab |------------2----------------2-----------------------------|
Eb |-----3-----------------------------------3-----------------|
And if you’re unhappy about something, stop jerking about

Bm7 Cadd9
Eb |----------------0---2-----------------------3--3--2--0-----|
Bb |------------3------------3----------------3-------------3--|
Gb |----------------------------2----------0-------------------|
Db |-----------------------------------------------------------|
Ab |---------2------------2----------2---3---------------------|
Eb |---3-------------------------------------------------------|
Follow the cloud and dive right in


D Gmaj7
Eb |--------0---2---------------------------0---2--------------|
Bb |-----3-----------3-------------------3------------3--------|
Gb |----------------------2------------------------------0-----|
Db |--0--------------------------------------------------------|
Ab |-----------------------------------------------------------|
Eb |----------------------------------3------------------------|
Open this window, just let the wind blow in

D G6
Eb |--------------------0---2-------------------------0--------|
Bb |----------------3----------3------------------3------3-----|
Gb |---------------------------------2-------------------------|
Db |----------0-------------------0----------------------------|
Ab |-----------------------------------------------------------|
Eb |--3------------------------------------3-------------------|
And let it grab you and calm you down

Bm7 Gmaj7
Eb |-------------------0---2------------------------0---2------|
Bb |----------------3---------3------------------3-------------|
Gb |---------------------------------2---------------------0---|
Db |-0---------------------------------------------------------|
Ab |------------2----------------2-----------------------------|
Eb |-----3-----------------------------------3-----------------|
And if there’s no way to find a way, don't go down the easy way


Bm7 Cadd9
Eb |----------0--2------------------------------3---3-3-3-3----|
Bb |-------3-----------3---------------------3------3-3-3-3----|
Gb |----------------------2---------------0---------0-0-0-0----|
Db |------------------------------------------------2-2-2-2----|
Ab |---2------------2--------2------3---------------3-3-3-3----|
Eb |-----------------------------------------------------------|
And don't let any of them bastards hold you down



Em7 D/F# G
Close your eyes, you might see something beautiful
Em7 D/F# G
’Cause it's not all pitchblack in the back of your mind
Em7 D/F# G
So close your eyes, you might see something prettier
Em7 D/F# A
So you pick a dream right out of the night


A
Welcome to the show,
G
cause you're following the man, with a million-dollar plan
A
And all the dreams are gone if you let them go
G
Yeah all the dreams you win, if your dare to make it so


D Gmaj7
Eb |--3-2-----------------0---2----------------------0---2-----|
Bb |------3----------3----------3-----------------3------------|
Gb |---------0---------------------2---------------------------|
Db |-------------0---------------------------------------------|
Ab |-----------------------------------------------------------|
Eb |---------------------------------------3-------------------|

D G6
Eb |--------------------0---2-------------------------0--------|
Bb |----------------3----------3------------------3------3-----|
Gb |------------------------------2----------------------------|
Db |----------0------------------------------------------------|
Ab |-----------------------------------------------------------|
Eb |---------------------------------------3-------------------|
If you dare to make it so



D Gmaj7
Eb |--------------------0---2------------------------0---2-----|
Bb |----------------3----------3------------------3------------|
Gb |------------------------------2----------------------------|
Db |----------0------------------------------------------------|
Ab |-----------------------------------------------------------|
Eb |---------------------------------------3-------------------|
You lost the things that you thought you would never miss

D G6
Eb |--------------------0---2-------------------------0--------|
Bb |----------------3----------3------------------3------3-----|
Gb |------------------------------2----------------------------|
Db |----------0------------------------------------------------|
Ab |-----------------------------------------------------------|
Eb |---------------------------------------3-------------------|
You let them out, miss them while they're gone


Bm7 Gmaj7
Eb |-------------------0---2------------------------0---2------|
Bb |----------------3---------3------------------3-------------|
Gb |-------------------------------2-----------------------0---|
Db |-0---------------------------------------------------------|
Ab |------------2----------------------------------------------|
Eb |-----3-----------------------------------3-----------------|
But there's memories down here, and they will always live down here

Bm7 Cadd9
Eb |----------0--2------------------------------3---3-3-3-3----|
Bb |-------3-----------3---------------------3------3-3-3-3----|
Gb |----------------------2---------------0---------0-0-0-0----|
Db |------------------------------------------------2-2-2-2----|
Ab |----2-----------2--------2------3---------------3-3-3-3----|
Eb |-3---------------------------------------------------------|
No they can’t take them away, so they won't



Em7 D/F# G
Close your eyes, you might see something beautiful
Em7 D/F# G
’Cause it's not all pitchblack in the back of your mind
Em7 D/F# G
So close your eyes, you might see something prettier
Em7 D/F# G
So you pick a dream right out of the night


Em7 - D/F# - G
So close your eyes
Em7 - D/F# - G
You close your eyes
Em7 - D/F# - G
So close your eyes
Em7 - D/F# - G
Go on close your eyes

ProTabs promo.jpg

Onbeperkt en gratis toegang tot alle 25.000
Tabs & Chords en direct meespelen met

Artiest Liedje

...

Gitaarakkoorden Racoon - Close your eyes

Dankzij de bladmuziek op deze pagina wordt het een stuk makkelijker om met de gitaar mee te spelen met Close your eyes van Racoon De ProTabs van Gitaartabs worden door onze professionele gitaardocenten samengesteld. De tabs en chords zijn door leden zelf geplaatst. Deze undefined van Racoon met Close your eyes is voor je geschreven door monique en mys11

Tabs & Chords van Racoon - Close your eyes

Bij de ProTabs delen we niet alleen de tablatuur maar ook de speelwijze van Close your eyes Met een beetje gitaar ervaring moet je dit gitaarliedje zeker kunnen spelen, maar als het niet lukt zijn we er altijd om je te helpen. Door een gratis account aan te maken krijg je niet alleen toegang tot deze tab ,akkoorden & tabs van Close your eyes maar kun je ook onbeperkt meespelen met een van de meer dan 25.000 andere tabs & chords in onze database.

Plaats opmerking

Beoordeel deze song

Rate UsDon’t love itNot greatGoodGreatLove itRate Us

Bedankt voor je beoordeling!