Star wars

Gitaarliedjes, tabs & akkoorden (chords) Star wars - star wars

Songtype: Tab

arrow&v

Markeer als favoriet

Favoriet

Gemarkeerd als favoriet

Capo:

0

star wars

star wars

Song
Album
Categorie

Star wars

Downloads
155
Niveau
1
Geplaatst door
gitaartabs
ProTabs-promo.jpg

Star Wars

e-----------------3---------3------------|
B---------3-1-0-----3-1-0-----3-1-0-1----|
G-------0-------2---------2-----------2--| <--- repeat
D-0-0-0----------------------------------|
A----------------------------------------|
E----------------------------------------|

e --------------------------------------------------|
B ---------1-0--------------------------1-0-----3---|
G -------------2-0-0-2-4-2------------------2-0---2-|
D -0-0-2-2-----------------2-4--0-0-2-2-------------|
A --------------------------------------------------|
E --------------------------------------------------|

e----------------------------------3-1----------------|
B------------------------------3-3-----4-3-1-0-----3--|
G---------1-0----------------------------------2-0----|
D-------------2-0-0-2-4-2-----------------------------|
A-0-0-2-2-----------------2-4-------------------------|
E-----------------------------------------------------|
--------------------------------------------------------------------------------
Subject: More Star Wars tabs..

"EMPIRE theme"

e|-------------------|--------------------------|-------------------|------
B|-------------------|--------------------------|-------------------|------
G|-------------------|--------------------------|-2-----3-2-1-0---0-|------
D|-------------------|-2-2-2-3-0----------------|---0-0---------4---|------
A|-0-0-0---3-0---3-0-|-----------3---3-0---3-0--|-------------------|------
E|-------1-----1-----|-------------1-----1------|-------------------|------

e|-------------|------------------||---------------------------------------
B|-------------|------------------||---------------------------------------
G|-------------|------------------||---------------------------------------
D|-0-5-4-3-212-|------------------||---------------------------------------
A|-------------|---0---3-0---3-0--||---------------------------------------
E|-------------|-1---1-----1------||--------------------------------------

"Luke Skywalker theme"

(Played while Luke gazes out upon the two moons on his home
planet of Tatooine sometime after the beginning of A New Hope)

I figured out this one on my own so take that Ryan!.. ;)

NOTE: Play this slowly and fluidly like it is played in the film

bar 5&6 string w.index bar 5&6 string again
| |
e|-----3----5-----6h8--6-------|------3---5-3-6------10/12----10-10-10-----
B|-3-3----------------------3--|--3 3-----------3--------------------------
G|-----------------------------|-------------------------------------------
D|-----------------------------|-------------------------------------------
A|-----------------------------|-------------------------------------------
E|-----------------------------|-------------------------------------------

e|-----3---5-3-6----10----|-3-3--10-8-6-5-3--3--/10--||
B|-3-3-----------3--------|--------------------------||
G|------------------------|--------------------------||
D|------------------------|--------------------------||
A|------------------------|--------------------------||
E|------------------------|--------------------------||

ProTabs promo.jpg

Onbeperkt en gratis toegang tot alle 25.000
Tabs & Chords en direct meespelen met

Artiest Liedje

...

Gitaarakkoorden star wars - Star wars

Dankzij de bladmuziek op deze pagina wordt het een stuk makkelijker om met de gitaar mee te spelen met Star wars van star wars De ProTabs van Gitaartabs worden door onze professionele gitaardocenten samengesteld. De tabs en chords zijn door leden zelf geplaatst. Deze undefined van star wars met Star wars is voor je geschreven door gitaartabs

Tabs & Chords van star wars - Star wars

Bij de ProTabs delen we niet alleen de tablatuur maar ook de speelwijze van Star wars Met een beetje gitaar ervaring moet je dit gitaarliedje zeker kunnen spelen, maar als het niet lukt zijn we er altijd om je te helpen. Door een gratis account aan te maken krijg je niet alleen toegang tot deze tab ,akkoorden & tabs van Star wars maar kun je ook onbeperkt meespelen met een van de meer dan 25.000 andere tabs & chords in onze database.

Plaats opmerking

Beoordeel deze song

Rate UsDon’t love itNot greatGoodGreatLove itRate Us

Bedankt voor je beoordeling!