Texas flood

Gitaarliedjes, tabs & akkoorden (chords) Texas flood - stevie ray vaughan

Songtype: Tab

arrow&v

Markeer als favoriet

Favoriet

Gemarkeerd als favoriet

Capo:

0

stevie ray vaughan

stevie ray vaughan

Song
Album
Categorie

Texas flood

Downloads
204
Niveau
3
Geplaatst door
larse
ProTabs-promo.jpg

E|-----------3--5--3-----------------------------8---10--8--8---8---15-15-15|
B|-----------3--5--3--------5-5------------------8---10--8--8---8---15-15-15|
G|-----------4--5--4--------4-4----------7--10---9---10--9--9---9---15-15---|
D|-----2--5------------5----5-5----su10-------------------------------------|
A|--5-----------------------------------------------------------------------|
E|--------------------------------------------------------------------------|
G C Dmin C C9


E|15-----------3--------5--3h5p3-----3--b6--6--3----------------------------|
B|15--------3-----6--3------------6---------------3-------------------------|
G|-------b5------------------------------------------b5--b3-----------------|
D|-----------------------------------------------------------5--5-----------|
A|--------------------------------------------------------------------------|
E|--------------------------------------------------------------------------|
G

E|-------------------0-----------b8--6---------------6----------------------|
B|-------------------0------8--8--------8--8----8--8----8--6----------------|
G|--4-------------5-------------------------------------------b*5-3--3------|
D|-----5----------4-----------------------------------------------------5---|
A|---------3-4-5------------------------------------------------------------|
E|--------------------------------------------------------------------------|
D G

E|------6-b8--8--6------------b8--b8-----b$8----6-----------------------b8--|
B|--8-8------------8--8--8-8--------------------------8---8-8-b10--b11------|
G|--------------------------------------------------------------------------|
D|--------------------------------------------------------------------------|
A|--------------------------------------------------------------------------|
E|--------------------------------------------------------------------------|
C7 G

E|--b6--6------------------------3---15sd---------6-b8-b8-b8-b8-6-----------|
B|--------8---6-3--------------------15sd-----8-8-----------------8--8----8-|
G|----------------b*5-3---3-b5----3-------------------------------------9---|
D|----------------------5---------------------------------------------------|
A|--------------------------------------------------------------------------|
E|--------------------------------------------------------------------------|
C7
XXXXX
E|-b6-------6-6-6----b8---b7--bb7-----6------------------------3----------3-|
B|--------------------------------------8---6-3-------------------------3---|
G|-----------------------------------------------b*5-3---3-b5-----3--b5-----|
D|-----------------------------------------------------5--------------------|
A|--------------------------------------------------------------------------|
E|--------------------------------------------------------------------------|
G


E|-------3su5--3su5--3su5-5sd3--------3-------------------------------------|
B|-6--3-------------------------6-------6--3---------------3--3-3---b6------|
G|--------------------------------b5----------b5--5--3--b5------------------|
D|--------------------------------------------------------------------------|
A|--------------------------------------------------------------------------|
E|--------------------------------------------------------------------------|
D7 C


E|-----3------------------------3-------------------------------------------|
B|----------------------------3---6-3---------------------------------------|
G|--------b5--b5---5p3-----b5----------b5-5-3-------------------------------|
D|----------------------5---------------------5--3--------------------------|
A|--------------------------------------------------5-4-3h4p3---------------|
E|--------------------------------------------------------------6--3--------|
G C G

E|-------------------------------------|------------------------3-3---------|
B|-------------------------------------|------------------------5-5---------|
G|-----------------------------------5-|------------------------4-4---------|
D|--5p3h5p3h5p3h5p3h5--5p3h5-----------|------------------------------------|
A|----------------------------3-4-5----|------------------------------------|
E|-------------------------------------|----------------------3-----3-3-----|
Well [D7] its floodin' down in texas


E|-3-----------------------------------|------3-----6-3-b8-b6-6-------------|
B|-3-----------------------------------|----3---b6--------------8--6--------|
G|-3-----------------------------------|-b5--------------------------7-b5---|
D|-------------------------------------|------------------------------------|
A|-------------------------------------|------------------------------------|
E|-------------------------------------|------------------------------------|
all of the telephone lines are down

E|------3-----5-3h5p3-----3-------------------------------------------------|
B|----3---6-3---------6-3---6-3---------------------------------------------|
G|-b5---------------------------b*5-3---3-----------------------------------|
D|------------------------------------5---5-3-------------------------------|
A|--------------------------------------------5-3---------------------------|
E|------------------------------------------------3-------------------------|
Well its floodin'

E|------------------3---------|--3------------------------------------------|
B|----------------------------|--3------------------------------------------|
G|--------------b5---------3--|--3------------------------------------------|
D|----------------------------|--2------------------------------------------|
A|----------------------------|--3------------------------------------------|
E|----------------------3-----|---------------------------------------------|
down in Texas all of the telephone lines are down


E|------3-----6-3-b8--b6--6-----------|--6-----6----------------------------|
B|----3---b6----------------8--8--8-8-|-----8----8----6---------------------|
G|-b5---------------------------------|-------------7-----------------------|
D|------------------------------------|-------------------------------------|
A|------------------------------------|-------------------------------------|
E|------------------------------------|-------------------------------------|
Yeah I've been

E|------------------15sd---------|--3---------------------------------------|
B|------------------15sd---------|--3---------------------------------------|
G|------------------15sd------3--|------------------------------------------|
D|-------------------------------|------------------------------------------|
A|-------------------------------|------------------------------------------|
E|-------------------------3-----|------------------------------------------|
tryin to cal my baby lord and I can't get a single sound


E|-------3-----b6--3--b8--b6--b6--6------------------|----3----------3-------
B|-----3---b6-----------------------8--6-3-----------|---------------3-------
G|--b5-------------------------------------b*5-3---3-|-b5---3--------3-------
D|-----------------------------------------------5---|---------5p3-----------
A|---------------------------------------------------|-------------5---3-4-5-
E|---------------------------------------------------|-----------------------

E|----------|-----------------3--3-3---------|------------------------------|
B|----------|-----------------5--5-5------3--|------------------------------|
G|-5--5-5---|-----------------4--4-4----3----|------------------------------|
D|----------|-----------------5--5-5---------|------------------------------|
A|----------|--------------------------------|------------------------------|
E|----------|--------------3----------3------|------------------------------|
Well dark clouds are rollin' and I'm standin' out in the r


E|------3--------6-3-------------|------------------------------------------|
B|----3---b6---------3-----------|------------------------------------------|
G|-b5------------------b5-b*5--3-|--su5-----------------------3-------------|
D|-------------------------------|------5----5-3----------3h5---5p3---------|
A|-------------------------------|---------------5-4-3--------------5-------|
E|-------------------------------|---------------------6--------------------|
Well Dark


E|------------------3---3--------|------------------------------------------|
B|------------------3---3-5--3---|-3----------------------------------------|
G|------------------3---3-5--3---|-3----------------------------------------|
D|-----------------------------5-|------------------------------------------|
A|-------------------------------|------------------------------------------|
E|---------------3---------------|------------------------------------------|
clouds are rollin and Im standin out in the rain

E|-------3--------6-----6-b8--|-su8--6---3-----------------3----------------|
B|-----3---b6-------8---------|-------8----6--------------------------------|
G|-b5-------------------------|--------------b*5--3---3b5----3--------------|
D|----------------------------|---------------------5-----------5p3---------|
A|----------------------------|-------------------------------------5-4-3---|
E|----------------------------|-------------------------------------------6-|
yeah flood

E|-----------------15sd----|-3----------------------------------------------|
B|-----------------15sd----|-3----------------------------------------------|
G|-------------------------|-3----------------------------------------------|
D|-------------------------|------------------------------------------------|
A|-------------------------|------------------------------------------------|
E|-----------------------3-|------------------------------------------------|
water keep rollin its about to drive po stevie ray insane

ProTabs promo.jpg

Onbeperkt en gratis toegang tot alle 25.000
Tabs & Chords en direct meespelen met

Artiest Liedje

...

Gitaarakkoorden stevie ray vaughan - Texas flood

Dankzij de bladmuziek op deze pagina wordt het een stuk makkelijker om met de gitaar mee te spelen met Texas flood van stevie ray vaughan De ProTabs van Gitaartabs worden door onze professionele gitaardocenten samengesteld. De tabs en chords zijn door leden zelf geplaatst. Deze undefined van stevie ray vaughan met Texas flood is voor je geschreven door larse

Tabs & Chords van stevie ray vaughan - Texas flood

Bij de ProTabs delen we niet alleen de tablatuur maar ook de speelwijze van Texas flood Met een beetje gitaar ervaring moet je dit gitaarliedje zeker kunnen spelen, maar als het niet lukt zijn we er altijd om je te helpen. Door een gratis account aan te maken krijg je niet alleen toegang tot deze tab ,akkoorden & tabs van Texas flood maar kun je ook onbeperkt meespelen met een van de meer dan 25.000 andere tabs & chords in onze database.

Plaats opmerking

Beoordeel deze song

Rate UsDon’t love itNot greatGoodGreatLove itRate Us

Bedankt voor je beoordeling!