Super mario bros

Gitaarliedjes, tabs & akkoorden (chords) Super mario bros - supermario

Songtype: Tab

arrow&v

Markeer als favoriet

Favoriet

Gemarkeerd als favoriet

Capo:

0

supermario

supermario

Song
Album
Categorie

Super mario bros

Downloads
1818
Niveau
1
Geplaatst door
gitaartabs
ProTabs-promo.jpg

Super Mario Bros



Melody



S E E S E H E. E. E. E E S E
E||--12-12--12-----12--15--------|--------------------------------|
B||-------------13---------------|--13----------------------------|
G||------------------------------|-------12--------14--16--15-14--|
D||------------------------------|------------14------------------|
A||------------------------------|--------------------------------|
E||------------------------------|--------------------------------|


S E S E S E E S S E. E. E. E. E E S E
-----12--15-17--13-15--12-------------|--------------------------------|
---------------------------13-15-12---|--13----------------------------|
--12----------------------------------|-------12--------14--16--15-14--|
--------------------------------------|------------14------------------|
--------------------------------------|--------------------------------|
--------------------------------------|--------------------------------|


S E S E S E E S S E.
-----12--15-17--13-15--12-------------|
---------------------------13-15-12---|
--12----------------------------------|
--------------------------------------|
--------------------------------------|
--------------------------------------|


E S S S E E S S E S S S E S S S E E E S Q
-----15-14-13-11--12---------------------|-----15-14-13-11--12--20--20-20----|
----------------------------13-----13-15-|-----------------------------------|
----------------------13-14-----14-------|-----------------------------------|
-----------------------------------------|-----------------------------------|
-----------------------------------------|-----------------------------------|
-----------------------------------------|-----------------------------------|


E S S S E E S S E S S S E E. E. H
-----15-14-13-11--12---------------------|-------------------------|
----------------------------13-----13-15-|-----16---15---13--------|
----------------------13-14-----14-------|-------------------------|
-----------------------------------------|-------------------------|
-----------------------------------------|-------------------------|
-----------------------------------------|-------------------------|


E S S S E E S S E S S S E S S S E E E S Q
-----15-14-13-11--12---------------------|-----15-14-13-11--12--20--20-20----|
----------------------------13-----13-15-|-----------------------------------|
----------------------13-14-----14-------|-----------------------------------|
-----------------------------------------|-----------------------------------|
-----------------------------------------|-----------------------------------|
-----------------------------------------|-----------------------------------|


E S S S E E S S E S S S E E. E. H
-----15-14-13-11--12---------------------|-------------------------|
----------------------------13-----13-15-|-----16---15---13--------|
----------------------13-14-----14-------|-------------------------|
-----------------------------------------|-------------------------|
-----------------------------------------|-------------------------|
-----------------------------------------|-------------------------|


S E E S E S E S Q S E E S S S H
--------------------12--------------|-------------------12----------|
--13-13--13--13-15-----13-----------|--13-13--13--13-15-------------|
---------------------------14-12----|-------------------------------|
------------------------------------|-------------------------------|
------------------------------------|-------------------------------|
------------------------------------|-------------------------------|


S E E S E S E S Q S E E S E H
--------------------12--------------|--12-12--12-----12--15--------|
--13-13--13--13-15-----13-----------|-------------13---------------|
---------------------------14-12----|------------------------------|
------------------------------------|------------------------------|
------------------------------------|------------------------------|
------------------------------------|------------------------------|


E. E. E. E E S E S E S E S E E S S E.
--------------------------------|-----12--15-17--13-15--12-------------|
--13----------------------------|---------------------------13-15-12---|
-------12--------14--16--15-14--|--12----------------------------------|
------------14------------------|--------------------------------------|
--------------------------------|--------------------------------------|
--------------------------------|--------------------------------------|


E. E. E. E E S E S E S E S E E S S E.
--------------------------------|-----12--15-17--13-15--12-------------|
--13----------------------------|---------------------------13-15-12---|
-------12--------14--16--15-14--|--12----------------------------------|
------------14------------------|--------------------------------------|
--------------------------------|--------------------------------------|
--------------------------------|--------------------------------------|


S E E. E S E S Q S E S S E S S E S Q
--12-----------------13--13-------|-----17--17-17-15--13-12--------------|
-----13---------------------------|-------------------------13-----------|
---------12---13--14--------14----|--16-------------------------14-12----|
----------------------------------|--------------------------------------|
----------------------------------|--------------------------------------|
----------------------------------|--------------------------------------|


S E E. E S E S Q S E S S E S H
--12-----------------13--13-------|-----13--13-13-12---------------|
-----13---------------------------|--12---------------15-13--------|
---------12---13--14--------14----|--------------------------------|
----------------------------------|--------------------------------|
----------------------------------|--------------------------------|
----------------------------------|--------------------------------|


S E E. E S E S Q S E S S E S S E S Q
--12-----------------13--13-------|-----17--17-17-15--13-12--------------|
-----13---------------------------|-------------------------13-----------|
---------12---13--14--------14----|--16-------------------------14-12----|
----------------------------------|--------------------------------------|
----------------------------------|--------------------------------------|
----------------------------------|--------------------------------------|


S E E. E S E S Q S E S S E S H
--12-----------------13--13-------|-----13--13-13-12---------------|
-----13---------------------------|--12---------------15-13--------|
---------12---13--14--------14----|--------------------------------|
----------------------------------|--------------------------------|
----------------------------------|--------------------------------|
----------------------------------|--------------------------------|


S E E S E S E S Q S E E S S S H
--------------------12--------------|-------------------12----------|
--13-13--13--13-15-----13-----------|--13-13--13--13-15-------------|
---------------------------14-12----|-------------------------------|
------------------------------------|-------------------------------|
------------------------------------|-------------------------------|
------------------------------------|-------------------------------|


S E E S E S E S Q S E E S E H
--------------------12--------------|--12-12--12-----12--15--------|
--13-13--13--13-15-----13-----------|-------------13---------------|
---------------------------14-12----|------------------------------|
------------------------------------|------------------------------|
------------------------------------|------------------------------|
------------------------------------|------------------------------|


S E E. E S E S Q S E S S E S S E S Q
--12-----------------13--13-------|-----17--17-17-15--13-12--------------|
-----13---------------------------|-------------------------13-----------|
---------12---13--14--------14----|--16-------------------------14-12----|
----------------------------------|--------------------------------------|
----------------------------------|--------------------------------------|
----------------------------------|--------------------------------------|


S E E. E S E S Q S E S S E S H
--12-----------------13--13-------|-----13--13-13-12---------------||
-----13---------------------------|--12---------------15-13--------||
---------12---13--14--------14----|--------------------------------||
----------------------------------|--------------------------------||
----------------------------------|--------------------------------||
----------------------------------|--------------------------------||




Duration Legend
---------------
W - whole
H - half
Q - quarter
E - 8th
S - 16th
T - 32nd
X - 64th
. - note dotted
|-n-| - n-tuplets


Tablature Legend
----------------
L - tied note
x - dead note
g - grace note
(n) - ghost note
> - accentuded note
NH - natural harmonic
AH - artificial harmonic
TH - tapped harmonic
SH - semi harmonic
PH - pitch harmonic
h - hammer on
p - pull off
b - bend
br - bendRelease
pb - preBend
pbr - preBendRelease
brb - bendReleaseBend
\n/ - tremolo bar dip
\n - tremolo bar dive
-/n - tremolo bar Release up
/n\ - tremolo bar inverted dip
/n - tremolo bar return
-\n - tremolo bar Release down
S - shift slide
s - legato slide
/ - slide into from below or out of upwards
\ - slide into from above or out of downwards
~ - vibrato
W - wide vibrato
tr - trill
TP - tremolo picking
T - tapping
S - slap
P - pop
< - fade in
^ - brush up
v - brush down

ProTabs promo.jpg

Onbeperkt en gratis toegang tot alle 25.000
Tabs & Chords en direct meespelen met

Artiest Liedje

...

Gitaarakkoorden supermario - Super mario bros

Dankzij de bladmuziek op deze pagina wordt het een stuk makkelijker om met de gitaar mee te spelen met Super mario bros van supermario De ProTabs van Gitaartabs worden door onze professionele gitaardocenten samengesteld. De tabs en chords zijn door leden zelf geplaatst. Deze undefined van supermario met Super mario bros is voor je geschreven door gitaartabs

Tabs & Chords van supermario - Super mario bros

Bij de ProTabs delen we niet alleen de tablatuur maar ook de speelwijze van Super mario bros Met een beetje gitaar ervaring moet je dit gitaarliedje zeker kunnen spelen, maar als het niet lukt zijn we er altijd om je te helpen. Door een gratis account aan te maken krijg je niet alleen toegang tot deze tab ,akkoorden & tabs van Super mario bros maar kun je ook onbeperkt meespelen met een van de meer dan 25.000 andere tabs & chords in onze database.

Plaats opmerking

Beoordeel deze song

Rate UsDon’t love itNot greatGoodGreatLove itRate Us

Bedankt voor je beoordeling!