• Streaming gitaar liedjes spelen
  • Leer gitaar spelen & gitaarlessen
  • 80.000 leden
e|-----------------|-----------------0|-----------------|----------------|
b|-1--1--1-1--0h1--|-1--1--1-1--0h1-3-|-1--1--1-1--0h1--|-3-1-0---3-1-0-1|
g|---------------0-|------------------|---------------0-|-------0--------|  X3
d|3--3--3-2--2----2|------------------|3--3--3-2--2----2|----------------|  
a|-----------------|3--3--3-2--2------|-----------------|----------------|
E|-----------------|------------------|-----------------|3-------3-------|

Entering chorus 3rd time:

e|-----------------|
b|-----------------|
g|-----------------|
d|---------------XX|
a|---------------XX|
E|---------------XX|

Chorus (Distortion)

e|----------------|--------------------|
b|----------------|--------------------|
g|hold---------|--------------------|
d|3-----8--8--|3~------------------|
a|3-----8--8---|3~------7-8-10-5~-3-|
E|---8--7--8-|1~------------------|

e|----------------|-------------------|
b|----------------|-------------------|
g|hold------------|-------------------|
d|3---------8--8--|3~-----------------|
a|3--------8--8---|3~------2-3-5------|
E|1-------8--7--8-|1~------------3~---|

Interlude

e|----------------|----------------|----------------|--------8/10-10-10\8-8/10|
b|----------------|----------------|----------------|--------8/10-10-10\8-8/10|
g|----------------|----------------|----------------|-------------------------|
d|7-7-7-7-7-7-7-7-|5-5-5-5-5-5-5-5-
|3-3-3-3-3-3-3-3-|5------------------------|
a|7-7-7-7-7-7-7-7-|5-5-5-5-5-5-5-5-|3-3-3-3-3-3-3-3-|5------------------------|
E|5-5-5-5-5-5-5-5-|3-3-3-3-3-3-3-3-|1-1-1-1-1-1-1-1-|3------------------------|
                                                     ^ 
Song Structure                                 End on this last time.

Verse X3
Chorus X1
Verse X3
Chorus X2
Interlude X1
Verse X2
Chorus X2
Interlude X1

Verse
It's down to this, I've got to make this life make sense
Can anyone tell what I've done
I miss the life, I miss the colors of the world
And now I can't tell where I am

Chorus
Now again I've found myself so far down, 
away from the sun
That shines into the darkest place, I'm so far down, 
away from the sun again

Verse
I'm over this, I'm tired of living in the dark
Can anyone see me down here
The feeling's gone, there's nothing left to lift me up
Back into the world I know

Chorus
Now again I've found myself so far down, 
away from the sun
That shines into the darkest place, I'm so far down, 
away from the sun
That shines to light the way for me to find my way
Back into the arms 
That care about the ones like me, I'm so far down
Away from the sun again

Verse
It's down to this, I've got to make this life make sense
And now I can't tell what I've done
Now again I've found myself so far down
Away from the sun
That shines to light the way 
For me

More info

Comments 3 Doors Down - Away From The Sun - tab

kenworth

Kenworth 2012-06-17

Kijk hier heb je wel de tekst toegevoegd, toppie


xNadiaa

XNadiaa 2008-03-02

Hoe speel je een Hammer On?
Ik snap er echt helemaal niks vn Ik weet het niet


Kristian

Kristian 2008-03-02

Een hammer on doe je door, bijv. eerst een losse snaar te spelen en dan druk je een vinger op een fret. Ik hoop dat je het begrijpt.

Gr.Kristian