• Streaming gitaar liedjes spelen
  • Leer gitaar spelen & gitaarlessen
  • 80.000 leden
                             Going Down In Flames                               


                                                                    3 Doors Down
Track 1



     E  E   E   E   E   E   E  E      E  E   E   E   E   E   E  E   
E||-------------------------------|--------------------------------|
B||-------------------------------|--------------------------------|
G||--9--L---x--11---L--11--12--L--|----------x--11---L--11--12--L--|
D||--9--L---x--11---L--11--12--L--|--10--L---x--11---L--11--12--L--|
A||--7--L---x---9---L---9--10--L--|--10--L---x---9---L---9--10--L--|
E||-------------------------------|---8--L-------------------------|


  E  E   E   E   E   E   E  E      E  E   E   E   E   E   E  E   
-------------------------------|--------------------------------|
-------------------------------|--------------------------------|
--9--L---x--11---L--11--12--L--|----------x--12---L--12--11--L--|
--9--L---x--11---L--11--12--L--|--10--L---x--12---L--12--11--L--|
--7--L---x---9---L---9--10--L--|--10--L---x--10---L--10---9--L--|
-------------------------------|---8--L-------------------------|


  E  E   E   E   E   E   E  E      E  E   E   E   E   E   E  E   
-------------------------------|--------------------------------|
-------------------------------|--------------------------------|
--9--L---x--11---L--11--12--L--|----------x--11---L--11--12--L--|
--9--L---x--11---L--11--12--L--|--10--L---x--11---L--11--12--L--|
--7--L---x---9---L---9--10--L--|--10--L---x---9---L---9--10--L--|
-------------------------------|---8--L-------------------------|


  E  E   E   E   E   E   E  E      E  E   E  E   E  E  E  E   
-------------------------------|-----------------------------|
-------------------------------|-----------------------------|
--9--L---x--11---L--11--12--L--|-----------------------------|
--9--L---x--11---L--11--12--L--|--10--L---x--9---L--9--7--L--|
--7--L---x---9---L---9--10--L--|--10--L---x--9---L--9--7--L--|
-------------------------------|---8--L---x--7---L--7--5--L--|


  E  E  E  E  E  E  E  E     E  E  E  E  E  E  E  E   
--------------------------|--------------------------|
--------------------------|--------------------------|
--4--L--x--4-----------L--|--5--L--x--5-----------L--|
--4--L--x--4-----------L--|--5--L--x--5-----------L--|
--2--L--x--2-----------L--|--3--L--x--3-----------L--|
--------------------------|--------------------------|


  E  E  E  E  E  E  E  E     E  E  E  E  E  E  E  E   
--------------------------|--------------------------|
--------------------------|--------------------------|
--------------------------|--7--L--x--7-----------L--|
--5--L--x--5-----------L--|--7--L--x--7-----------L--|
--5--L--x--5-----------L--|--5--L--x--5-----------L--|
--3--L--x--3-----------L--|--------------------------|


  E  E  E  E  E  E  E  E     E  E  E  E  E  E  E  E   
--------------------------|--------------------------|
--------------------------|--------------------------|
--4--L--x--4-----------L--|--5--L--x--5-----------L--|
--4--L--x--4-----------L--|--5--L--x--5-----------L--|
--2--L--x--2-----------L--|--3--L--x--3-----------L--|
--------------------------|--------------------------|


  E  E  E  E  E  E  E  E     E  E  E  E  E  E  E  E     W                 
--------------------------|--------------------------|-------------------|
--------------------------|--------------------------|-------------------|
--------------------------|--7--L--x--7-----------L--|--4----------------|
--5--L--x--5-----------L--|--7--L--x--7-----------L--|--4----------------|
--5--L--x--5-----------L--|--5--L--x--5-----------L--|--2----------------|
--3--L--x--3-----------L--|--------------------------|-------------------|


  W                   W                   W                   W                 
-------------------|-------------------|-------------------|-------------------|
-------------------|-------------------|-------------------|-------------------|
--5----------------|-------------------|--7----------------|--4----------------|
--5----------------|--5----------------|--7----------------|--4----------------|
--3----------------|--5----------------|--5----------------|--2----------------|
-------------------|--3----------------|-------------------|-------------------|


  W                   W                   W                 
-------------------|-------------------|-------------------|
-------------------|-------------------|-------------------|
--5----------------|-------------------|--7----------------|
--5----------------|--5----------------|--7----------------|
--3----------------|--5----------------|--5----------------|
-------------------|--3----------------|-------------------|


  E  E  E   E   E  E   E  E     E  E  E  E  E  E   E   E   
-----------------------------|----------------------------|
-----------------------------|----------------------------|
--9--L--x--11---L--x--12-----|-----------------L----------|
--9--L--x--11---L--x--12-----|-----------------L--10---L--|
--7--L--x---9---L--x--10-----|-----------------L--10---L--|
-----------------------------|---------------------8---L--|


   E  E  E  E   E  E  Q       Q    E  E  E  E  E   E   
---------------------------|--------------------------|
---------------------------|--------------------------|
---------------------------|-------------9--L--x--11--|
---x--9--L--x--12----------|----------L--9--L--x--11--|
---x--9--L--x--12----------|----------L--7--L--x---9--|
---x--7--L--x--10----------|----------L---------------|


  E  E   E  E  E  E  E  E     E  E   E  E  E  E  E  E   
---------------------------|---------------------------|
---------------------------|---------------------------|
--L--x--12-----------------|-----L---------------------|
--L--x--12-----------------|-----L--10--L--x--9--L--x--|
--L--x--10-----------------|-----L--10--L--x--9--L--x--|
---------------------------|---------8--L--x--7--L--x--|


   E  E  E  E  E  E  E  E     E  E   E   E   E   E   E  E   
---------------------------|-------------------------------|
---------------------------|-------------------------------|
---------------------------|--9--L---x--11---L--11--12--L--|
--12--------------------L--|--9--L---x--11---L--11--12--L--|
--12--------------------L--|--7--L---x---9---L---9--10--L--|
--10--------------------L--|-------------------------------|


   E  E   E   E   E   E   E  E     E  E   E   E   E   E   E  E   
--------------------------------|-------------------------------|
--------------------------------|-
------------------------------|
----------x--11---L--11--12--L--|--9--L---x--11---L--11--12--L--|
--10--L---x--11---L--11--12--L--|--9--L---x--11---L--11--12--L--|
--10--L---x---9---L---9--10--L--|--7--L---x---9---L---9--10--L--|
---8--L-------------------------|-------------------------------|


   E  E   E   E   E   E   E  E     E  E   E   E   E   E   E  E   
--------------------------------|-------------------------------|
--------------------------------|-------------------------------|
----------x--12---L--12--11--L--|--9--L---x--11---L--11--12--L--|
--10--L---x--12---L--12--11--L--|--9--L---x--11---L--11--12--L--|
--10--L---x--10---L--10---9--L--|--7--L---x---9---L---9--10--L--|
---8--L-------------------------|-------------------------------|


   E  E   E   E   E   E   E  E     E  E   E   E   E   E   E  E   
--------------------------------|-------------------------------|
--------------------------------|-------------------------------|
----------x--11---L--11--12--L--|--9--L---x--11---L--11--12--L--|
--10--L---x--11---L--11--12--L--|--9--L---x--11---L--11--12--L--|
--10--L---x---9---L---9--10--L--|--7--L---x---9---L---9--10--L--|
---8--L-------------------------|-------------------------------|


   E  E   E  E   E  E  E  E     E  E  E  E  E  E  E  E   
-----------------------------|--------------------------|
-----------------------------|--------------------------|
-----------------------------|--4--L--x--4-----------L--|
--10--L---x--9---L--9--7--L--|--4--L--x--4-----------L--|
--10--L---x--9---L--9--7--L--|--2--L--x--2-----------L--|
---8--L---x--7---L--7--5--L--|--------------------------|


  E  E  E  E  E  E  E  E     E  E  E  E  E  E  E  E   
--------------------------|--------------------------|
--------------------------|--------------------------|
--5--L--x--5-----------L--|--------------------------|
--5--L--x--5-----------L--|--5--L--x--5-----------L--|
--3--L--x--3-----------L--|--5--L--x--5-----------L--|
--------------------------|--3--L--x--3-----------L--|


  E  E  E  E  E  E  E  E     E  E  E  E  E  E  E  E   
--------------------------|--------------------------|
--------------------------|--------------------------|
--7--L--x--7-----------L--|--4--L--x--4-----------L--|
--7--L--x--7-----------L--|--4--L--x--4-----------L--|
--5--L--x--5-----------L--|--2--L--x--2-----------L--|
--------------------------|--------------------------|


  E  E  E  E  E  E  E  E     E  E  E  E  E  E  E  E   
--------------------------|--------------------------|
--------------------------|--------------------------|
--5--L--x--5-----------L--|--------------------------|
--5--L--x--5-----------L--|--5--L--x--5-----------L--|
--3--L--x--3-----------L--|--5--L--x--5-----------L--|
--------------------------|--3--L--x--3-----------L--|


  E  E  E  E  E  E  E  E     W                   W                 
--------------------------|-------------------|-------------------|
--------------------------|-------------------|-------------------|
--7--L--x--7-----------L--|--4----------------|--5----------------|
--7--L--x--7-----------L--|--4----------------|--5----------------|
--5--L--x--5-----------L--|--2----------------|--3----------------|
--------------------------|-------------------|-------------------|


  W                   W                   W                   W                 
-------------------|-------------------|-------------------|-------------------|
-------------------|-------------------|-------------------|-------------------|
-------------------|--7----------------|--4----------------|--5----------------|
--5----------------|--7----------------|--4----------------|--5----------------|
--5----------------|--5----------------|--2----------------|--3----------------|
--3----------------|-------------------|-------------------|-------------------|


  W                   W                   E  E  E   E   E  E   E  E   
-------------------|-------------------|-----------------------------|
-------------------|-------------------|-----------------------------|
-------------------|--7----------------|--9--L--x--11---L--x--12-----|
--5----------------|--7----------------|--9--L--x--11---L--x--12-----|
--5----------------|--5----------------|--7--L--x---9---L--x--10-----|
--3----------------|-------------------|-----------------------------|


  E  E  E  E  E  E   E   E      E  E  E  E   E  E  Q     
----------------------------|---------------------------|
----------------------------|---------------------------|
-----------------L----------|---------------------------|
-----------------L--10---L--|---x--9--L--x--12----------|
-----------------L--10---L--|---x--9--L--x--12----------|
---------------------8---L--|---x--7--L--x--10----------|


  Q    E  E  E  E  E   E     E  E   E  E  E  E  E  E   
--------------------------|---------------------------|
--------------------------|---------------------------|
-------------9--L--x--11--|--L--x--12-----------------|
----------L--9--L--x--11--|--L--x--12-----------------|
----------L--7--L--x---9--|--L--x--10-----------------|
----------L---------------|---------------------------|


  E  E   E  E  E  E  E  E      E  E  E  E  E  E  E  E    
---------------------------|---------------------------||
---------------------------|---------------------------||
-----L---------------------|---------------------------||
-----L--10--L--x--9--L--x--|--12--------------------L--||
-----L--10--L--x--9--L--x--|--12--------------------L--||
---------8--L--x--7--L--x--|--10--------------------L--||




Duration Legend
---------------
W - whole
H - half
Q - quarter
E - 8th
S - 16th
T - 32nd
X - 64th
. - note dotted
|-n-|  - n-tuplets


Tablature Legend
----------------
L - tied note
x - dead note
g - grace note
(n) - ghost note
> - accentuded note
NH - natural harmonic
AH - artificial harmonic
TH - tapped harmonic
SH - semi harmonic
PH - pitch harmonic
h - hammer on
p - pull off
b - bend
br - bendRelease
pb - preBend
pbr - preBendRelease
brb - bendReleaseBend
\n/ - tremolo bar dip
\n - tremolo bar dive
-/n - tremolo bar Release up
/n\ - tremolo bar inverted dip
/n - tremolo bar return
-\n - tremolo bar Release down
S - shift slide
s - legato slide
/ -  slide into from below or out of upwards
\ -  slide into from above or out of downwards
~ - vibrato
W - wide vibrato
tr - trill
TP - tremolo picking
T - tapping
S - slap
P - pop
< - fade in
^ - brush up
v - brush down

voor klachten of aanwijzingen. plz. e-mail Sparretak@live.nl

More info