• Streaming gitaar liedjes spelen
  • Leer gitaar spelen & gitaarlessen
  • 80.000 leden
|-----------------------------------|
|-------3-----------------------0---|
|-----4---4----0--------0-----2-----|
|---4-------4---------0-----2-------|
|-2-----------------2-----0---------|
|-----------------3-----------------|

Repeat 3 more times, then:

|---------------------------0-------|
|-------3---------------------0-----|
|-----4---4---0--------0--------0---|
|---4-------4--------0--------------|
|-2----------------2------0---------|
|----------------3------------------|

Then repeat first part 3 times, then 
repeat second part once. That's all I 
could figure out, except for the solo:
|-------------------------------------|
|-------------------------------------|
|-------------------------------------|
|---4-5-4-5-4-7-5-4-5-4-0-2-0-2-0-2---|
|-7-----------------------------------|
|-------------------------------------|

T
hen the Bass Player can play:
|--------------------------------------|
|--------------------------------------|
|--------------------------------------|
|-5--5--5--5--5--5---7--7--7--7--7--7--|
|-5--5--5--5--5--5---7--7--7--7--7--7--|
|-3--3--3--3--3--3---5--5--5--5--5--5--|

then the soloist:

|-------------------------------------|
|-------------------------------------|
|-------------------------------------|
|-------------------------------------|
|---4-5-4-5-7-9-7-5-7-5-0-2-0-2-0-2---|
|-7-----------------------------------|

and last, but most certainly not least, 
the bassist can play:

|--------------------------------------|
|--------------------------------------|
|--------------------------------------|
|-5--5--5--5--5--5--7--7--7--7--7--7--9|
|-5--5--5--5--5--5--7--7--7--7--7--7--9|
|-3--3--3--3--3--3--3--5--5--5--5--5--7|

More info

Comments 3 Doors Down - Kryptonite - tab

manddyy

Manddyy 2010-12-03

wat is de slag?


The_Crow

The_Crow 2010-04-18

Cool Song :o


mike

Mike 2008-05-24

hallo ik heb een video uitleg van deze song gemaakt.Kijk maar even onder mijn naam op deze site.


angelique

Angelique 2007-12-25

ik ook Knipoog


sammy99999

Sammy99999 2007-03-26

ja dat kunde ik


cabana

Cabana 2006-11-30

oe kunde da leze