• Streaming gitaar liedjes spelen
  • Leer gitaar spelen & gitaarlessen
  • 75.000 leden
Main riff:
E|---------------------------|
B|---------------------------|
G|--4-4-4-4-4-4-4-4-4--------|
D|--4-4-4-4-4-4-4-4-4--------|
A|--0-2-2-0-2-2-0-2-2--------|
E|---------------------------|


 Verse:
You think  you're   kinda     tough
|---------------------------|---------------------------|
|---------------------------|---------------------------|
|--4-4-4-4-4-4-4-4-4--------|--4-4-4-4-4-4-4-4-4--------|
|--4-4-4-4-4-4-4-4-4--------|--4-4-4-4-4-4-4-4-4--------|
|--0-2-2-0-2-2-0-2-2--------|--0-2-2-0-2-2-0-2-2--------|
|---------------------------|---------------------------|

 you're   walking   kinda     rough
|---------------------------|---------------------------|
|---------------------------|---------------------------|
|--4-4-4-4-4-4-4-4-4--------|--4-4-4-4-4-4-4-4-4--------|
|--4-4-4-4-4-4-4-4-4--------|--4-4-4-4-4-4-4-4-4--------|
|--0-2-2-0-2-2-0-2-2--------|--0-2-2-0-2-2-0-2-2--------|
|---------------------------|---------------------------|

when you   want    any       more
|---------------------------|---------------------------|
|---------------------------|---------------------------|
|---------------------------|---------------------------|
|--4-4-4-4-4-4-4-4-4--------|--4-4-4-4-4-4-4-4-4--------|
|--4-4-4-4-4-4-4-4-4--------|--4-4-4-4-4-4-4-4-4--------|
|--0-2-2-0-2-2-0-2-2--------|--0-2-2-0-2-2-0-2-2--------|

you go    fast     wo'        wo'               things go 
|---------------------------|---------------------------|
|---------------------------|---------------------------|
|--4-4-4-4-4-4-4-4-4--------|--4-4-4-4-4-4-4-4-4--------|
|--4-4-4-4-4-4-4-4-4--------|--4-4-4-4-4-4-4-4-4--------|
|--0-2-2-0-2-2-0-2-2--------|--0-2-2-0-2-2-0-2-2--------|
|---------------------------|---------------------------|

 tough                       and you strut your stuff                     and I want your
|-----------------------|-------------------|-----------------------|-------------------|
|----7----9----------8--|----7--------------|----7----9----------8--|----7--------------|
|----7----9----9--7--7--|----7--------------|----7----9----9--7--7--|----7--------------|
|--------------9--7-----|-------------------|--------------9--7-----|-------------------|
|-----------------------|-------------------|-----------------------|-------------------|
|-----------------------|-------------------|-----------------------|-------------------|
|         
De rest van dit nummer alleen voor Gitaartabs leden! Maak gratis Gitaartabs account aan . 
Gitaar Tabs

Download, print en speel de Tab ♪ Ac/dc - All Screwed Up

Meld je aan en print, download of speel binnen 15 sec mee Tab ♫ Ac/dc - All Screwed Up.
Reeds 70.000 gitaristen zijn je voorgegaan.

Gratis Aanmelden Gitaartabs