• Streaming gitaar liedjes spelen
  • Leer gitaar spelen & gitaarlessen
  • 75.000 leden
AC/DC - Anything Goes, from Black Ice
Transcribed by:  IbanezR
Tuning:  Standard

INTRO:
|ANGUS                          
|-----------------------:||    |-------------------------|
|-----------------------:||    |-15-15-15-15-15-15-15-15-|
|-7-777-6-4-2-2---------:||    |-------------------------|
|-7-777-7-5-0-0-0000000-:||    |-------------------------|
|-----------------------:||    |-------------------------|
|-----------------------:||X4  |-USE-VERBRATO>>>---------|
|
|MALCOM
|-----------------------:||
|-----------------------:||
|-----------------------:||
|-7-7-7-7-7-7-7-7-7-7-7-:||
|-5-5-5-5-5-5-5-5-5-5-5-:||
|-PM>>>-----------------:||X4
|

|-14-14-14-14-14-14-12-10-10-12-10-10-12-:||
|-10-10-10-10-10-10-10-10-10-10-10-10-10-:||
|-11-11-11-11-11-11-11-11-11-11-11-11-11-:||
|----------------------------------------:||
|----------------------------------------:||
|-FINGER PICKING>>>----------------------:||X2 Continued...

GUITAR 3 Cont:
|-14-14-14-14-14-14-14-14-15-15-15-15-15-15-15-14-14-14-12-10-10-|
|-10-10-10-10-10-10-10-10-10-10-10-10-10-10-10-10-10-10-10-10-10-|
|-11-11-11-11-11-11-11-11-11-11-11-11-11-11-11-11-11-11-11-11-11-|
|----------------------------------------------------------------|
|----------------------------------------------------------------|
|-FINGER PICKING>>>----------------------------------------------|X1

VERSE 1
|ANGUS
|-----------------------:||
|-----------------------:||
|-7-777-6-4-2-2---------:||
|-7-777-7-5-0-0-0000000-:||
|-----------------------:||
|-----------------------:||X2
|
|MALCOM
|-----------------------:||
|-----------------------:||
|-----------------------:||
|-7-7-7-7-7-7-7-7-7-7-7-:||
|-5-5-5-5-5-5-5-5-5-5-5-:||
|-PM>>>-----------------:||X2

|ANGUS (*Riff Variation 2)
|-----------------------:||
|-----------------------:||
|-7-777-6-4-2-2-4-2-2-4-:||
|-7-777-7-5-0-0-0-0-0-0-:||
|-----------------------:||
|-----------------------:||X2
|
|MALCOM
|-----------------------:||
|-----------------------:||
|-----------------------:||
|-7-7-7-7-7-7-7-7-7-7-7-:||
|-5-5-5-5-5-5-5-5-5-5-5-:||
|-PM>>>-----------------:||X2

CHORUS
|ANGUS
|-3---------------3---------------3-------|
|-3---------------3---------------3-------|
|-0---------------0---------------0-------|
|-0---------------0---------------0-------|
|-0---------------0---------------0-------|
|-3---------------3---------------3-------|
|
|MALCOM
|-----------------------------------------|
|-----------------------------------------|
|-----------------------------------------|
|-5---------------5---------------5-------|
De rest van dit nummer alleen voor Gitaartabs leden! Maak gratis Gitaartabs account aan . 
Gitaar Tabs

Download, print en speel de Tab ♪ Ac/dc - Anything Goes

Meld je aan en print, download of speel binnen 15 sec mee Tab ♫ Ac/dc - Anything Goes.
Reeds 70.000 gitaristen zijn je voorgegaan.

Gratis Aanmelden Gitaartabs