• Streaming gitaar liedjes spelen
  • Leer gitaar spelen & gitaarlessen
  • 75.000 leden
Intro   (Guitar 2, Angus)
Let ring throughout
e|-----0--------0--------0----------0----------0-----------|
b|-------3--------3--------3----------3----------3---------|
g|---2--------2--------2----------2----------2-------------|
D|-0--------0----------------------------------------------|
A|-------------------3----------3----------2---------------|
E|---------------------------------------------------------|
Play twice

e|-----0-----------0----------0--------0----------0--------|
b|-------3-----------3----------3---------3----------3-----|
g|----2-----------2----------2---------2----------2--------|
D|-0-------------------------------------------------------|
A|---------------------------------------------------------|
E|-----------2----------2----------3----------3------------|

Intro  (Guitar 1, Malcolm)
Let ring through out
e|-0----------------0----------------------0------------------|
b|-3----------------3----------------------3------------------|
g|-2----------------2----------------------0---------------1--|
D|-0----------------0----------------------0---------------3--|
A|------------------0----------------------2---------------3--|
E|------------------2----------------------3---------------1--|

Verse: (Guitars one and two)
   D       C5      F    C5   G
e|------------------------------------|
b|-3--3--3---1--1--1------------------|
g|-2--2--2---2--2--2--------5---------|
D|-0--0--0---0--0--0---3----5----5----|
A|-----------3--3--3---3----3----5----|
E|---------------------1---------3----|

Pre-chorus:
        (Guitar 1, Malcolm)

e|-0---------------------------------------0------------------|
b|-3---------------------------------------3------------------|
g|-2----------------2----------------------0---------------1--|
D|-0----------------0----------------------0---------------3--|
A|------------------0----------------------2---------------3--|
E|------------------2----------------------3---------------1--|

        (Guitar 2, Angus)

e|-----0--------0--------0----------0----------0-----------
b|-------3--------3--------3----------3----------3
De rest van dit nummer alleen voor Gitaartabs leden! Maak gratis Gitaartabs account aan . 
Gitaar Tabs

Download, print en speel de Tab ♪ Ac/dc - Are You Ready?

Meld je aan en print, download of speel binnen 15 sec mee Tab ♫ Ac/dc - Are You Ready?.
Reeds 70.000 gitaristen zijn je voorgegaan.

Gratis Aanmelden Gitaartabs

Comments Ac/dc - Are You Ready? - tab

kenworth

Kenworth 2012-04-04

Ook hier weer de tekst