• Streaming gitaar liedjes spelen
  • Leer gitaar spelen & gitaarlessen
  • 75.000 leden
---------------------|-------3-0------------|
---------------------|-----------3-0--------|
------7-7-7----------|---------------2^F^p0-|
--2---7-7-7--7-7-7---|-X-X-X----------------|
--2---5-5-5--7-7-7---|-X-X-X----------------|
--0----------5-5-5---|-X-X-X----------------|

---------------------|----------------------|
---------------------|----------------------|
------7-7-7----------|----------------------|
--2---7-7-7--7-7-7---|-----------------
De rest van dit nummer alleen voor Gitaartabs leden! Maak gratis Gitaartabs account aan . 
Gitaar Tabs

Download, print en speel de Tab ♪ Ac/dc - Back In Black

Meld je aan en print, download of speel binnen 15 sec mee Tab ♫ Ac/dc - Back In Black.
Reeds 70.000 gitaristen zijn je voorgegaan.

Gratis Aanmelden Gitaartabs

Comments Ac/dc - Back In Black - tab

Rosofie

Rosofie 2013-06-14

wtf


J.an

J.an 2009-06-25

waar staat die F voor? Verbaasd


arjan--12

Arjan--12 2008-12-25

Volgens mij klopt deze niet