• Streaming gitaar liedjes spelen
  • Leer gitaar spelen & gitaarlessen
  • 75.000 leden
Riff A:  2x in the intro
-GITAAR 1=>-3---0----0--0-------|-----------3---0---0------------
------------------3--------3--0-|-----------------3-----3\-------
--------------------------------|--------------------------------
--2--2--<==GITAAR 2-------------|--2--2--------------------------
--2--2--------------------------|--2--2--------------------------
--0--0--------------------------|--0--0--------------------------
 
 
Riff B:  (speel dit stuk elke keer opnieuw bij iedere zin van het liedje)
-----------------------------------------------------------------
-----------------------------------------------------------------
-----------------------------------------------------------------
--------0--------------------------
De rest van dit nummer alleen voor Gitaartabs leden! Maak gratis Gitaartabs account aan . 
Gitaar Tabs

Download, print en speel de Tab ♪ Ac/dc - Big Gun Versie 1

Meld je aan en print, download of speel binnen 15 sec mee Tab ♫ Ac/dc - Big Gun Versie 1.
Reeds 70.000 gitaristen zijn je voorgegaan.

Gratis Aanmelden Gitaartabs