• Streaming gitaar liedjes spelen
  • Leer gitaar spelen & gitaarlessen
  • 75.000 leden
AC/DC:  BIG JACK (Album, Black Ice)

Intro:

ANGUS
|-------------|
|-------------|
|-4---4-----4-|
|-4-2-4-2-2-4-|
|-2-2-2-2-2-2-|
|---0---0-0---|

Verse:

ANGUS & MALCOM
|--------------------------------------------:||
|--------------------------------------------:||
|--------------------------------------------:||
|-4-4-----------4*-4---4-4-4-4-4-4-:|| X4
|-0h2-2-5-4-2--2-2-0h2-0h2-0h2-:||
|------------------0----------0-------------:||
         

|---------------------:||     |-0-|
|---------------------:||     |-2-|
|---------------------:||     |-3-|
|-4-4-4-4-4-4-----4-4-:|| X4  |-0-| (On 4th time, play D,
|-2-2-0h2-0h2-5-4-2-2-:||     |-0-|  instead of last B
De rest van dit nummer alleen voor Gitaartabs leden! Maak gratis Gitaartabs account aan . 
Gitaar Tabs

Download, print en speel de Tab ♪ Ac/dc - Big Jack

Meld je aan en print, download of speel binnen 15 sec mee Tab ♫ Ac/dc - Big Jack.
Reeds 70.000 gitaristen zijn je voorgegaan.

Gratis Aanmelden Gitaartabs