• Streaming gitaar liedjes spelen
  • Leer gitaar spelen & gitaarlessen
  • 75.000 leden
Black Ice
Ac/Dc
Album: Black Ice

Intro/Vers:	               
Riff 1
   Am	                  
e|-------------------|		e|-------------------|
B|-------------------|		B|---1-----4p1---3-1-|
G|---5-----8p5---7-5-|		G|-2-2-2-2-2-2-2-2-2-|
D|-7-7-7-7-7-7-7-7-7-|		D|-2---2-2-----2---2-|
A|-7---7-7-----7-----|		A|(0)-(0)-----(0)-(0)|
E|-------------------|		E|-------------------|

Riff 2
  Am C  D    D  C  Am
e|---------|---------|
B|---------|---------|
G|---------|---------|
D|-7-10-12-|-12-10-7-|
A|-7-10-12-|-12-10-7-|
E|-5-8—-10-|-10-8—-5-|

Riff 3
  Bm				  Bm
e|--------------------|        e|----------------------|
B|--------------------|        B|---3-----6p3---5-3----|
G|---7-----10p7---9-7-|         G|-4-4-4-4-4-4-4-4-4---|
D|-9-9-9-9-9--9-9-9-9-|        D|-4---4-4-----4---4----|
A|-9---9-9------9-----|        A|----------------------|
E|--------------------|        E|----------------------|

End (Riff 4):
   Eb D  C  Am
e|------------|
B|------------|
G|------------|
D|-13-12-10-7-|
A|-13-12-10-7-|
E|-11-10-8—-5-|


georderd

Intro/Vers:
Riff 1 x12
Pre Chorus:
Riff 2 x2
Chorus:
Riff 1 x4
Vers 2:
Riff 3 x8
Riff 1 x4
Pre Chorus:
Riff 2 x4 (mini solo)
Solo
Riff 1 x4
Vers 3
Riff 3 x4
Riff 1 x4
Outro
Riff 2 x4
Riff 1 x10
Riff 4 and then ripp it of on the chord Am.

e|-------------------------------------|
B|-10b-8/10-10-8/10-10-8/10-10b--------|
G|-----------------------------9-8-7-5-|
D|-------------------------------------
De rest van dit nummer alleen voor Gitaartabs leden! Maak gratis Gitaartabs account aan . 
Gitaar Tabs

Download, print en speel de Tab ♪ Ac/dc - Black Ice

Meld je aan en print, download of speel binnen 15 sec mee Tab ♫ Ac/dc - Black Ice.
Reeds 70.000 gitaristen zijn je voorgegaan.

Gratis Aanmelden Gitaartabs