• Streaming gitaar liedjes spelen
  • Leer gitaar spelen & gitaarlessen
  • 75.000 leden
Intro:                                                                           
E|----------------------|--------------------|
B|-------3----3----1----|--------------------|
G|--2----0----2----0----|--2--5--------------|
D|--2----0----0----2----|--2--5--------------|
A|--0--------------3----|--0--3--------------|
E|-------3--------------|--------------------|

|---------------------------|---------------------------|
|---------------------------|---------------------------|
|---------------------------|---------------------------|
|--7--7--7--7-7--7-7--7--7--|--7--7--7--7-7--7-7--7--7--|
|--0--0--0--0-0--0-0--0--0--|--0--0--0--0-0--0-0--0--0--|
|---------------------------|---------------------------|
 
Theme (4x):
|---------------------------|----------------------------|
|---------------------------|----------------------------|
|---------------------------|----------------------------|
|---------------------------|--9-8-7--7--7-7--7-7--7--7--|
|--7--7--7---7-7-5-5--5--5--|--7-6-5--5--5-5--5-5--5--5--|
|--5--5--5---5-5-3-3--3--3--|----------------------------|
                                                         

Verse:                         Don't you give...                            better run...
|-----------------------|--------------------|-----------------------|--------------------|
|-----------------------|--------------------|-----------------------|--------------------|
|----2--------7--5------|--2--5--------------|----2--------7--5------|--2--5--------------|
|----2--5---5-7--5------|--2--5--------------|----2--5---5-7--5------|--2--5--------------|
|----0--5---5-5--3------|--0--3--------------|----0--5---5-5--3------|--0--3--------------|
|-------3---3-----------|--------------------|-------3---3-----------|--------------------|

                               just like a...                              so don't give...
|-----------------------|--------------------|-----------------------|--------------------|
|-----------------------|--------------------|-----------------------|--------------------|
|----2--------7--5------|--2--5--------------|----2--------7--5------|--2--5--------------|
|----2--5---5-7--5------|--2--5--------------|----2--5---5-7--5------|--2--5--------------|
|----0--5---5-5--3------|--0--3--------------|----0--5---5-5--3------|--0--3--------------|
|-------3---3-----------|--------------------|-------3---3-----------|--------------------|

       don't you give...             
De rest van dit nummer alleen voor Gitaartabs leden! Maak gratis Gitaartabs account aan . 
Gitaar Tabs

Download, print en speel de Tab ♪ Ac/dc - Can't Stop Rock N Roll

Meld je aan en print, download of speel binnen 15 sec mee Tab ♫ Ac/dc - Can't Stop Rock N Roll.
Reeds 70.000 gitaristen zijn je voorgegaan.

Gratis Aanmelden Gitaartabs

Comments Ac/dc - Can't Stop Rock N Roll - tab

kenworth

Kenworth 2012-04-04

en nog eens....