• Streaming gitaar liedjes spelen
  • Leer gitaar spelen & gitaarlessen
  • 75.000 leden
Intro:
E|---------------------------|---------------------------|
B|---------------------------|---------------------------|
G|--5--2-----2~---0----------|--5--2-----2~---0----------|
D|--5--2-------------0-1-2---|--5--2-------------0-1-2---|
A|--3--0--0----------------0-|--3--0--0----------------0-|
E|---------------------------|---------------------------|

                                                    picking up...                  
|---------------------------|----------------------|------------------|
|---------------------------|----------------------|------------------|
|--5--2-----2~---0----------|--5--2-----2----------|------------------|
|--5--2-------------0-1-2---|--5--2-----2----------|------------------|
|--3--0--0----------------0-|--3--0--0--0----------|------------------|
|---------------------------|----------------------|------------------|

                              hell no distance...                                              
|---------------------------|-------------------|---------------------------|
|---------------------------|-------------------|---------------------------|
|-----------2~---0----------|-------------------|-----------2~---0----------|
|--5--2-------------0-1-2---|-------------------|--5--2-------------0-1-2---|
|--3--0--0----------------3-|--0----------------|--3--0--0----------------3-|
|---------------------------|-------------------|---------------------------|
 
    burning down...                                 don't you...                                  
|-------------------|---------------------------|-------------------|
|-------------------|---------------------------|-------------------|
|-------------------|-----------2~---0----------|-------------------|
|-------------------|--5--2-------------0-1-2---|-------------------|
|--0----------------|--3--0--0----------------3-|--0----------------|
|-------------------|---------------------------|-------------------|

                              these are...                                        
|------------------------|-------------------|------------------------|
|------------------------|-------------------|------------------------|
|--5--5-----5---------5--|--5----------------|--5--5-----5---------5--|
|--7--7--5--7----5----7--|--7----------------|--7--7--5--7----5----7--|
|--5--5--5--5----5----5--|--5----------------|--5--5--5--5----5----5--|
|--------3-------3-------|-------------------|--------3-------3-------|

    don't think...                               I've got my...                              
|-------------------|------------------------|-------------------|
|-------------------|------------------------|-------------------|
|--5----------------|--7--7-----7---------7--|--7----------------|
|--7----------------|--9--9--7--9----7----9--|--9----------------|
|--5----------------|--7--7--7--7----7----7--|--7----------------|
|-------------------|--------5-------5-------|-------------------|
 
                          upon my...     ...want it   come and get it                                         
|------------------------|-------------------|--------------------------|
|--3--3--2--3----2-------|-------------------|--------------------------|
|--2--2--2--2----2-------|-------------------|----------2~---0----------|
|--0--0--2--0-
De rest van dit nummer alleen voor Gitaartabs leden! Maak gratis Gitaartabs account aan . 
Gitaar Tabs

Download, print en speel de Tab ♪ Ac/dc - Come And Get It

Meld je aan en print, download of speel binnen 15 sec mee Tab ♫ Ac/dc - Come And Get It.
Reeds 70.000 gitaristen zijn je voorgegaan.

Gratis Aanmelden Gitaartabs