• Streaming gitaar liedjes spelen
  • Leer gitaar spelen & gitaarlessen
  • 75.000 leden
 Intro + theme:
E|-------------------------|---------------------|
B|-------------------------|---------------------|
G|-------2--2-----2--2--2--|--2-------2----------|
D|----2--2--2--2--2--2--2--|--2----2--2----------|
A|----3--0--0--3--0--0--0--|--0----3--0----------|
E|-------------------------|---------------------|

 Verse:
 wild beast...
|---------------------|---------------------|
|---------------------|---------------------|
|---------------------|---------------------|
|------------2--2--2--|--2----2--2----------|
|------------0--0--0--|--0----3--0----------|
|---------------------|---------------------|

Chorus:       fire...
            |---------------------|---------------------|
            |-----------3---------|---------------------|
            |--0--------2----2----|--5----5--2----------|
            |--0--------0----2----|--5----5--2----------|
            |-----------0----0----|--3----3--0----------|
            |--3------------------|---------------------|

  fire...
|---------------------|---------------------|
|-----------3---------|---------------------|
|--0--------2----2----|--5----5--2----------|
|--0--------0----2----|--5----5--2----------|
|-----------0----0----|--3----3--0----------|
|--3------------------|---------------------|

  fire...
|---------------------|---------------------|--------------------|
|-----------3---------|---------------------|--------------------|
|--0---
De rest van dit nummer alleen voor Gitaartabs leden! Maak gratis Gitaartabs account aan . 
Gitaar Tabs

Download, print en speel de Tab ♪ Ac/dc - Fire Your Guns

Meld je aan en print, download of speel binnen 15 sec mee Tab ♫ Ac/dc - Fire Your Guns.
Reeds 70.000 gitaristen zijn je voorgegaan.

Gratis Aanmelden Gitaartabs