• Streaming gitaar liedjes spelen
  • Leer gitaar spelen & gitaarlessen
  • 75.000 leden
|-----------------------|-----------------------|-----------------------|
B|----7--9----7----9--7--|----7--9----7----9--7--|----7--9----7----9--7--|
G|----8--9----8----9--8--|----8--9----8----9--8--|----8--9----8----9--8--|
D|----9--9----9----9--9--|----9--9----9----9--9--|----9--9----9----9--9--|
A|-----------------------|-----------------------|-----------------------|
E|-----------------------|-----------------------|-----------------------|

|-----------------------|-----------------------|-----------------------|
|----7--9----7----9--7--|----7--9----7----9--7--|----7--9----7----9--7--|
|----8--9----8----9--8--|----8--9----8----9--8--|----8--9----8----9--8--|
|----9--9----9----9--9--|----9--9----9----9--9--|----9--9----9----9--9--|
|-----------------------|-----------------------|-----------------------|
|-----------------------|-----------------------|-----------------------|
                                                    Going round...
|-----------------------|-----------------------|-----------------------|
|----7--9----7----9--7--|----7--9----7----9--7--|----7--9----7----9--7--|
|----8--9----8----9--8--|----8--9----8----9--8--|----8--9----8----9--8--|
|----9--9----9----9--9--|----9--9----9----9--9--|----9--9----9----9--9--|
|-----------------------|-----------------------|-----------------------|
|-----------------------|-----------------------|-----------------------|
 (see 2nd guitar fill-in below)
|-----------------------|-----------------------|-----------------------|
|----7--9----7----9--7--|----7--9----7----9--7--|----7--9----7----9--7--|
|----8--9----8----9--8--|----8--9----8----9--8--|----8--9----8----9--8--|
|----9--9----9----9--9--|----9--9----9----9--9--|----9--9----9----9--9--|
|-----------------------|-----------------------|-----------------------|
|------------
De rest van dit nummer alleen voor Gitaartabs leden! Maak gratis Gitaartabs account aan . 
Gitaar Tabs

Download, print en speel de Tab ♪ Ac/dc - Get It Hot

Meld je aan en print, download of speel binnen 15 sec mee Tab ♫ Ac/dc - Get It Hot.
Reeds 70.000 gitaristen zijn je voorgegaan.

Gratis Aanmelden Gitaartabs