• Streaming gitaar liedjes spelen
  • Leer gitaar spelen & gitaarlessen
  • 75.000 leden
E|---------------------|------------------------|---------------------|
B|---------------------|------------------------|---------------------|
G|--7------5-----------|-----2--2-----5----2----|--7------5-----------|
D|--7------5--------2--|--4-----------5----2----|--7------5--------2--|
A|--5------3-----------|-----------0--3----0----|--5------3-----------|
E|---------------------|------------------------|---------------------|

|------------------------|---------------------|------------------------|
|------------------------|---------------------|------------------------|
|-----2--2-----5----2----|--7------5-----------|-----2--2-----5----2----|
|--4-----------5----2----|--7------5--------2--|--4-----------5----2----|
|-----------0--3----0----|--5------3-----------|-----------0--3----0----|
|------------------------|---------------------|------------------------|

|---------------------|
De rest van dit nummer alleen voor Gitaartabs leden! Maak gratis Gitaartabs account aan . 
Gitaar Tabs

Download, print en speel de Tab ♪ Ac/dc - Girl's Got Rhythm

Meld je aan en print, download of speel binnen 15 sec mee Tab ♫ Ac/dc - Girl's Got Rhythm.
Reeds 70.000 gitaristen zijn je voorgegaan.

Gratis Aanmelden Gitaartabs

Comments Ac/dc - Girl's Got Rhythm - tab

Job

Job 2010-08-17

veaat!!


brampie

Brampie 2010-03-21

NICE!!!