• Streaming gitaar liedjes spelen
  • Leer gitaar spelen & gitaarlessen
  • 75.000 leden
Part 1
      
|-------------------------------------------------------------------|
|-------------------------------------------------------------------|
|---2--2--0---2--2--0-----------------------------------------------|
|---2--2--0---2--2--0-----------------------------------------------|
|---0--0--0---0--0--0-----------------------------------------------|
|-------------------------------------------------------------------|

Part 2a                 Mute
                        |  |  |
|-------------------------------------------------------------------|
|--------------------------3--3--3~~~-------------------------------|
|---2--2--0---2--2--0---0--2--2--2~~~-------------------------------|
|---2--2--0---2--2--0---0--0--0--0~~~-------------------------------|
|---0--0--0---0--0--0---0-------------------------------------------|
|-------------------------------------------------------------------|

Part 2a  
De rest van dit nummer alleen voor Gitaartabs leden! Maak gratis Gitaartabs account aan . 
Gitaar Tabs

Download, print en speel de Tab ♪ Ac/dc - Give It Up

Meld je aan en print, download of speel binnen 15 sec mee Tab ♫ Ac/dc - Give It Up.
Reeds 70.000 gitaristen zijn je voorgegaan.

Gratis Aanmelden Gitaartabs