• Streaming gitaar liedjes spelen
  • Leer gitaar spelen & gitaarlessen
  • 75.000 leden
                                       1/2                    
|-------------------|---------------------------------------|---------
|-------8~~~--8-----|-------8-------------------------------|---------
|--7/9--------9~~~--|--7/9-----97p5-----7------5-----------|--5------
|-------------------|-----------------7---------------7-----|--5h6----
|-------------------|------------------------------------0--|--0------
|-------------------|---------------------------------------|---------
                                                                      

                                                    1/2               
----------------------|------------------------------------------|----
-------------7--------|-------------8----------------------------|----
-------------7--------|--------7/9-----97p5-----7---5-----------|----
-------------7--------|-----------------------7------------7-----|----
----0-----0--0-----0--|---------------------------------------0--|----
----------------------|------------------------------------------|----
                                                                      

                                                     1/2              
-----------------------------|---------------------------------|------
--------------7--------------|-------8-------------------------|------
5h6-----------7--------------|--7/9-----97p5-----7---5--------|------
5-------------7--------------|-----------------7---------7-----|------
0----0-----0--0-----------0--|------------------------------0--|------
-----------------------------|---------------------------------|------
                                                                      

                                                                      
------------------------|-------------------------------|-------------
---------3--------------|-------------2-----------------|-------------
2--------2--------------|--5-------5--2-----------------|--5h6--------
2--------0--------------|--5-------5--2-----------------|--5----------
0-----0--0-----------0--|--3p0-----3--0--------0-----0--|--0----0-----
------------------------|-------------------------------|-------------
                                                                      

                                             1/2                      
---------------------|---------------------------------|--------------
---------------------|-------8-------------------------|--------------
---------7-----------|--7/9-----97p5-----7---5--------|--5h6---------
---------7-----------|-----------------7---------7-----|--5-----------
---0-----0--------0--|------------------------------0--|--0----0------
---------------------|---------------------------------|--------------
                                                                      

                                                                      
---------------------|--------------------------------|---------------
---------7-----------|-----------------2--------------|---------------
---------7-----------|--5-----------5--2--------------|--5h6----------
---------7-----------|--5-----------5--2--------------|--5------------
---0-----0--------0--|--3-----0-----3--0-----------0--|--0----0-------
---------------------|--------------------------------|---------------
                                                                      

                                 1/4                                  
------|------------------------------------------|--------------------
---7--|----------8-------------------------------|--------------------
---7--|-----7/9-----97p5-----7---5--------------|--5h6---------------
---7--|--------------------7--7---------7--------|--5-----------------
0--0--|--------------------0--0---------0-----0--|--0----0-----0------
------|------------------------------------------|--------------------
                                                                      

                                 Oh.......           whiskey          
---------------|---------------------------||---------||--------------
7--------------|-----------2---------------||---------||--------------
7--------------|--5--------2------2-----0--||---------||*-------------
7-----0--------|--5--------2---------------||---------||*--5-----4----
0-----0-----0--|--3--0--3--0---------------||---------||---0-----0----
---------------|---------------------------||---------||--------------
                                                                      

   P.M.-------------------]P.M.                 P.M.        P.M.      
------------------------|---------------------------------------------
------------------------|--------------------------------
De rest van dit nummer alleen voor Gitaartabs leden! Maak gratis Gitaartabs account aan . 
Gitaar Tabs

Download, print en speel de Tab ♪ Ac/dc - Have A Drink On Me

Meld je aan en print, download of speel binnen 15 sec mee Tab ♫ Ac/dc - Have A Drink On Me.
Reeds 70.000 gitaristen zijn je voorgegaan.

Gratis Aanmelden Gitaartabs

Comments Ac/dc - Have A Drink On Me - tab

kenworth

Kenworth 2012-04-04

ook hier de tekst