• Streaming gitaar liedjes spelen
  • Leer gitaar spelen & gitaarlessen
  • 75.000 leden
  Am    Asus4   Am7      Asus4    Am        Asus4  Am7    A7sus4 C5  G/B Am
e|--0--------------|-----------------|--0--------------|----------------------|
b|-------3-------1-|------3----------|-------3-------1-|------3---------------|
g|----------2------|--0-------2------|-----------2-----|--0-------------------|
D|-----------------|-----------------|-----------------|---------5---5--------|
A|0---0--------0---|----0--------0-0-|-----0-------0---|----0----3---2---0----|
E|-----------------|-----------------|-----------------|----------------------|

Pattern 2
       Asus4   Am7        Asus4     Am       Asus4     G     D   C5  G/B Am
e|0----------------|-------------------|-0-------------3-|-3--2---------------|
b|-----3-------1---|-------3-----------|-----3---------3-|-3--3---------------|
g|--------2--------|--0--------2-------|---2-----2-----0-|-0--2---------------|
D|-----------------|-------------------|---------------0-|-0--0---5---5-------|
A|--0--------0-----|----0---------0--0-|------------0--2-|-2--0---3---2---0---|
E|-----------------|-------------------|---------------3-|-3------------------|

                   D5/A~~~~~  Cadd9 G/B   A5                 D5/A   Cadd9 G/B
e|-------------------|-----------------|-----------------------|--------------|
b|-------------------|---------3----3--|-----------------------|-----3---3----|
g|-9--7--9---7--5--7-|---------0----0--|-----9--7--9---7--5--7-|-----0---0----|
D|-7--7--7---5--5--7-|-----------------|-----7--7--7---5--5--7-|--------------|
A|-----------------0-|------0--3----2--|--0--------------------|--0--3---2----|
E|-------------------|-----------------|-----------------------|--------------|

At this Point the Verse is mostly A5 D5/A Cadd9 G/B A5 D5/A Cadd9 G/B - Stuff!

  I won`t take no Prisoners... (Pattern 3)
    D5                            C5  G5   D5                          C5 G
e|------------------------------------3-----------------------------------3---|
b|---3--3--3---3--3--3---3--3--3------3------3--3--3---3--3--3-3-3-3-3----3---|
g|---2--0--2---2--0--2---2--2--2--5---0------2--0--2---2--0--2-2-2-2-2-5--0---|
D|-0------------------------------5---0---0----------------------------5--0---|
A|--------------------------------3------------------------------------3------|
E|------------------------------------3-----------------------------------3---|

 PreChorus: E5 D5/A A E5 G5 & Chorus Patt.1!

Pre-Solo                                     b    slowb
e|----------------------------------------5-----------------------------------|
b|--8--7--8--7---7--5---------------------5-7-8--7-----8----------------------|
g|--7--7-------9-7--5-----------------------7-8--7-----8----------------------|
D|---------------------7--5--7------------------------------------------------|
A|---------------------------------------------------------12-----------------|
E|------------------------------------------------------------x---------------|
                                                               x
                                                                x
Solo 1
         ~~~~~      ~~~~~                     b          b    |---HB---------|
e|----------------------------------------------------------------------------|
b|--------------------------------------------------8---------8-8-8-8-8-8--8-8|
g|-------------------------------------------7-9-------7--9---9-9-9-9-9-9--9-9|
D|--5-7-7-----4-5-5------0--4-5-7-7--5-7--------------------------------------|
A|----------------------------------------------------------------------------|
E|-----------------------------------------------
De rest van dit nummer alleen voor Gitaartabs leden! Maak gratis Gitaartabs account aan . 
Gitaar Tabs

Download, print en speel de Tab ♪ Ac/dc - Hell's Bells

Meld je aan en print, download of speel binnen 15 sec mee Tab ♫ Ac/dc - Hell's Bells.
Reeds 70.000 gitaristen zijn je voorgegaan.

Gratis Aanmelden Gitaartabs