• Streaming gitaar liedjes spelen
  • Leer gitaar spelen & gitaarlessen
  • 75.000 leden
Intro:
E|--------------------|-----------------------------|-----------------------------|
B|--------------------|-----------------------------|-----------------------------|
G|--------------------|-----------------------------|-----------------------------|
D|--------------5--7--|--8p7------------------5--7--|--8p7------------------5--7--|
A|--------------5--7--|--7-7-7p5--------------5--7--|--7-7-7p5--7-----7-----5--7--|
E|--------------------|-----------0--0--0--0--------|-----------0--0--0--0--------|

                                              band:
|-----------------------------|---------------------------|
|-----------------------------|---------------------------|
|-----------9-----------------|----------------------2----|
|--8p7------9-----9-----5--7--|--8p7------------5----2----|
|--7-7-7p5--------------5--7--|--7-7-7p5--------5----0----|
|-----------0--0--0--0--------|-----------0--0--3---------|

|---------------------------|---------------------------|---------------------------|
|---------------------------|---------------------------|---------------------------|
|--3p2-0--------------0--2--|--3p2-0--------------0--2--|--3p2-0--------------0--2--|
|--2-2---2-----2------0--2--|--2-2---2-----2------0--2--|--2-2---2-----2------0--2--|
|--------------2------------|--------------2------------|--------------2------------|
|-----------0--0------------|-----------0--0------------|-----------0--0------------|

                                      humdinger                       bell ringer
|---------------------------|-----------------------------|-----------------------------|
|---------------------------|-----------------------------|-----------------------------|
|--3p2-0--------------0--2--|--3p2-0----------------0--2--|--3p2-0----------------0--2--|
|--2-2---2-----2------0--2--|--2-2---2--------------0--2--|--2-2---2--------------0--2--|
|--------------2------------|-----------------------------|-----------------------------|
|-----------0--0------------|-----------0--0--0--0--------|-----------0--0--0--0--------|

          got a nasty...   to   slow you    down                     mud slinger
|-----------------------------|---------------------------|-----------------------------|
|-----------------------------|---------------------------|-----------------------------|
|--3p2-0----------------0--2--|--3p2-0--------------0--2--|--3p2-0----------------0--2--|
|--2-2---2--------------0--2--|--2-2---2--2--2------0--2--|--2-2---2--------------0--2--|
|-----------------------------|-----------2--2------------|-----------------------------|
|-----------0--0--0--0--------|-----------0--0------------|-----------0--0--0--0--------|

          gold digger                    who point...   and   do you     down
|-----------------------------|-----------------------------|---------------------------|
|-----------------------------|-----------------------------|---------------------------|
|--3p2-0----------------0--2--|--3p2-0---------------
De rest van dit nummer alleen voor Gitaartabs leden! Maak gratis Gitaartabs account aan . 
Gitaar Tabs

Download, print en speel de Tab ♪ Ac/dc - House Of Jazz

Meld je aan en print, download of speel binnen 15 sec mee Tab ♫ Ac/dc - House Of Jazz.
Reeds 70.000 gitaristen zijn je voorgegaan.

Gratis Aanmelden Gitaartabs