• Streaming gitaar liedjes spelen
  • Leer gitaar spelen & gitaarlessen
  • 75.000 leden
E-------------|---------------|--------------|-----------------------------
B-------------|---------------|--------------|-----------------------------
G-------------|---------------|--------------|----------2------------------
D--5---4---5--|---5---4---5---|---5---4---5--|---4------2------------------
A--7---5---7--|---7---5---7---|---7---5---7--|---5------0------------------
E-------------|---------------|--------------|-----------------------------


E-------------|---------------|--------------|-----------------------------
B-------------|---------------|--------------|-----------------------------
G-------------|---------------|--------------|----------2------------------
D--5---4---5--|---5---4---5---|---5---4---5--|---4------2------------------
A--7---5---7--|---7---5---7---|---7---5---7--|---5------0------------------
E-------------|---------------|--------------|-----------------------------

  Guitar 1
E--------------|-------------------|-------------------|-------------------¦
B--------------|-------------------|-------------------|-------------------¦
G--------------|-------------------|-------------------|-------------2-----¦
D--5---4---5---|-------5---4---5---|-------5---4---5---|------4------2-----¦
A--7---5---7---|-------7---5---7---|-------7---5---7---|------5------0-----¦
E--0---0---0---|--0----0---0---0---|--0----0---0---0---|--0-------0--------¦
                     
                     
  Guitar 2           
E--------------------------------------------------------------------------¦
B----------------------8---7---8^^---------8---7---8^^--------7------2-----¦
G----------------------9---7---9^^---------9
De rest van dit nummer alleen voor Gitaartabs leden! Maak gratis Gitaartabs account aan . 
Gitaar Tabs

Download, print en speel de Tab ♪ Ac/dc - Let Me Put My Love In To You

Meld je aan en print, download of speel binnen 15 sec mee Tab ♫ Ac/dc - Let Me Put My Love In To You.
Reeds 70.000 gitaristen zijn je voorgegaan.

Gratis Aanmelden Gitaartabs