• Streaming gitaar liedjes spelen
  • Leer gitaar spelen & gitaarlessen
  • 75.000 leden
(Intro) Riff 1
e |-------------------------------------------------------------------|
B |-------------------------------------------------------------------|
G |----------------------------------------------2--------------------|
D |-0--2-2-------------0--2-2--------------0-2-2-2-2-2-0-2-2----------|  3X
A |-0--2-2-------------0--2-2--------------0-2-2-0-2-2-0-2-2----------|
E |-3--0-0--0-0-0-0-0--3--0-0-0-0-0-0-0----3-0-0---0-0-3-0-0-0-0-0-0-0|
	    . . . . .         . . . . .                      . . . . .

(Verse)
In the beginning...
...

... LET THERE BE ROCK!!!!
RIFF 2
e |------------------------------------------------------------|
B |------------------------------------------------------------|
G |-2-2--x---x-2-2--x---x-2-2--x---x-2-2--x---x-2-2--x---x-2-2-|
D |-2-2--x---x-2-2--x---x-2-2--x---x-2-2--x---x-2-2--x---x-2-2-|
A |-0-0--x---x-0-0--x---x-0-0--x---x-0-0--x---x-0-0--x---x-0-0-|
E |------------------------------------------------------------|

e |------------------------------------|
B |------------------------------------|
G |-x---x-2-2--x---x-2-2--x---x-2-2--x-|
D |-x---x-2-2--x---x-2-2--x---x-2-2--x-|
A |-x---x-0-0--x---x-0-0--x---x-0-0--x-|
E |------------------------------------|

Solo 1 (Guitar 2 Plays Riff 2)
									   
e |-------------------------------------------------------------|
B |-------------------------------------------------------------|
G |-------------------------------------5--7-7(9)-7-5--7-5~~~~~-| 
D |---7---7---7-\-------7---7---7\----7-------------------------|
A |-------------------------------------------------------------|
E |-------------------------------------------------------------|

e |-------------------------------------------------------------|
B |-------------------------------------------------------------|
G |---5-7-7(9)-7-5-7---5-7-7(9)-7---5-5-----5---5-5---5-5---5-5-|
D |-7----------------7------------7-----7-7---7-----7-----7-----|
A |-------------------------------------------------------------|
E |-------------------------------------------------------------|


e |------------------------------------------------------------|
B |------------------------------------------------------------|
G |---5-5---5-5---5---5-5---5-5---5-5---5-5---5-5---5-5---5-5--|
D |-7-----7-----7---7-----7-----7-----7-----7-----7-----7------|
A |------------------------------------------------------------|
E |------------------------------------------------------------|


e |------------------------------------------------------------|
B |------------------------------------------------------------|
G |---5-5---5-5---7---7-7---7-7---7-7---7-7---7---7-7---7-7----|
D |-7-----7-----7---9-----9-----9-----9-----9---9-----9--------|
A |------------------------------------------------------------|
E |------------------------------------------------------------|

e |--------------------------17--------------------------------|
B |-------------------20(22)----20-17--------------------------|
G |---7-7---7-7---7-------------------17-17----19-17-----------|
D |-9-----9-----9---------------------------19-------19--------|
A |------------------------------------------------------------|
E |--------------------------------------------------------
De rest van dit nummer alleen voor Gitaartabs leden! Maak gratis Gitaartabs account aan . 
Gitaar Tabs

Download, print en speel de Tab ♪ Ac/dc - Let There Be Rock

Meld je aan en print, download of speel binnen 15 sec mee Tab ♫ Ac/dc - Let There Be Rock.
Reeds 70.000 gitaristen zijn je voorgegaan.

Gratis Aanmelden Gitaartabs