• Streaming gitaar liedjes spelen
  • Leer gitaar spelen & gitaarlessen
  • 75.000 leden
E|--2----------------|--2--------3--------|-------------------|
B|--3----------------|--3--------3--------|--2----------------|
G|--2----------------|--2--------0--------|--2----------------|
D|--0----------------|--4--------0--------|--2----------------|
A|-------------------|--------------------|--0----------------|
E|-------------------|--------------------|-------------------|

|------------------|--2----------------|--2--------3--------|-------------------|
|------------------|--3----------------|--3--------3--------|--2----------------|
|------------------|--2----------------|--2--------0--------|--2----------------|
|------------------|--0----------------|--4--------0--------|--2----------------|
|------------------|-------------------|--------------------|--0----------------|
|--------------
De rest van dit nummer alleen voor Gitaartabs leden! Maak gratis Gitaartabs account aan . 
Gitaar Tabs

Download, print en speel de Tab ♪ Ac/dc - Love Hungry Man

Meld je aan en print, download of speel binnen 15 sec mee Tab ♫ Ac/dc - Love Hungry Man.
Reeds 70.000 gitaristen zijn je voorgegaan.

Gratis Aanmelden Gitaartabs

Comments Ac/dc - Love Hungry Man - tab

kenworth

Kenworth 2012-04-01

ook hier weer de tekst ;-)