• Streaming gitaar liedjes spelen
  • Leer gitaar spelen & gitaarlessen
  • 75.000 leden
Intro:                                                                 
E|-------------------|-----------------------|-------------------|-----------------------|
B|-------------------|-----------------------|-------------------|-----------------------|
G|-------------------|-----9--7----6--9------|-------------------|-----9--7----6--9------|
D|----------------5/-|--6--7--9----7--7------|-------------------|-----7--9----7--7------|
A|-------------------|-----------------------|----------------5/-|--7--------------------|
E|-------------------|-----------------------|----------------0--|--0--------------------|

Both guitars:                                                                    
|-------------------|------------------------|------------------------|
|-------------------|------------------------|------------------------|
|-------------------|-----9--7----6--9-------|-----9--7----6--9-------|
|-------------------|-----7--9----7--7-------|-----7--9----7--7-------|
|----------------5/-|--7------------------5/-|--7------------------5/-|
|----------------0--|--0------------------0--|--0------------------0--|
|                   |                        |                        |
|-------------------|------------------------|------------------------|
|-------------------|------------------------|------------------------|
|-------------------|-------------2--2-------|-------------2--2-------|
|-------------------|--2--2-------2--2-------|--2--2-------2--2-------|
|----------------0--|--2--2--5----0--0----0--|--2--2--5----0--0----0--|
|-------------------|--0--0------------------|--0--0------------------|

Angus to verse:       !!!                                                                           
|------------------------|
|------------------------|
|-----9--7----6--9-------|
|-----7--9----7--7----5/-|
|--7---------------------|
|--0---------------------|
 
Verse:                                                                          
|------------------------|------------------------|------------------------|
|------------------------|------------------------|------------------------|
|-----9--7----6--9-------|-----9--7----6--9-------|-----9--7----6--9-------|
|--6--7--9----7--7----5/-|--6--7--9----7--7----5/-|--6--7--9----7--7----5/-|
|------------------------|------------------------|------------------------|
|------------------------|------------------------|------------------------|
|                        |                        |                        |
|------------------------|------------------------|------------------------|
|------------------------|------------------------|------------------------|
|------------------------|------------------------|------------------------|
|-------------2--2-------|-------------2--2-------|-------------2--2-------|
|--2--2--5----0--0----0--|--2--2--5----0--0----0--|--2--2--5----0--0----0--|
|--0--0------------------|--0--0------------------|--0--0------------------|

Bridge to chorus:                                                                          
                     man  it's getting hot     hot                      
|------------------------|----------
De rest van dit nummer alleen voor Gitaartabs leden! Maak gratis Gitaartabs account aan . 
Gitaar Tabs

Download, print en speel de Tab ♪ Ac/dc - Meltdown

Meld je aan en print, download of speel binnen 15 sec mee Tab ♫ Ac/dc - Meltdown.
Reeds 70.000 gitaristen zijn je voorgegaan.

Gratis Aanmelden Gitaartabs