• Streaming gitaar liedjes spelen
  • Leer gitaar spelen & gitaarlessen
  • 75.000 leden
        PM--------|           PM-----------|
|---------------------|----------------------|
|---------------------|----------------------|
|---------------------|----------------------|
|-0-0-0-0-------------|-0-0-0-0--------------|
|-5-5-5-5-5-5-5-5-5-5-|-5-5-5-5-5-5-5-5-5----|
|-3-3-3-3-6-3-6-3-6-3-|-3-3-3-3-6-3-6-3-6----|


 4/4
  Gtr I
           PM-----------------|              PM--------------------|
|---------------------------------|--------------------------------|
|---------------------------------|--------------------------------|
|---------------------------------|--------------------------------|
|-0-0-0-0-------------------------|-0-0-0-0------------------------|
|-5-5-5-5--5---5---5---5---5---5--|-5-5-5-5--5---5---5---5---5-----|
|-3-3-3-3--6---3---6---3---6---3--|-3-3-3-3--6---3---6---3---6-----|
|
| Gtr II
|-3-3-3-3-(3)-(3)-(3)-(3)-(3)-(3)-|-3-3-3-3-(3)-(3)-(3)-(3)-(3)--|
|-3-3-3-3-(3)-(3)-(3)-(3)-(3)-(3)-|-3-3-3-3-(3)-(3)-(3)-(3)-(3)--|
|-0-0-0-0--5---0---5---0---5---0--|-0-0-0-0--5---0---5---0---5---|
|-5-5-5-5--5---5---5---5---5---5--|-5-5-5-5--5---5---5---5---5---|
|---------------------------------|------------------------------|
|---------------------------------|------------------------------|


   Pre-Verse
   4/4
    Gtr I
            PM--------------|             PM----------|
                                                             4x
||------------------------------|----------------------------||
||o-----------------------------|---------------------------o||
||------------------------------|----------------------------||
||--0-0-0-0---------------------|-0-0-0-0--------------------||
||o-5-5-5-5-5-5---5-5---5---5---|-5-5-5-5-5-5---5-5---5-----o||
||--3-3-3-3-6-3---6-3---6---3---|-3-3-3-3-6-3---6-3---6------||
|
|   Gtr II
|                                                            4x
||--3-3-3--
De rest van dit nummer alleen voor Gitaartabs leden! Maak gratis Gitaartabs account aan . 
Gitaar Tabs

Download, print en speel de Tab ♪ Ac/dc - Money Made

Meld je aan en print, download of speel binnen 15 sec mee Tab ♫ Ac/dc - Money Made.
Reeds 70.000 gitaristen zijn je voorgegaan.

Gratis Aanmelden Gitaartabs