• Streaming gitaar liedjes spelen
  • Leer gitaar spelen & gitaarlessen
  • 75.000 leden
e|--------------------------------|----------------------------|--------------|
b|----------3---------3--------3--|----------3-----3------3----|--------------|
g|--2-------2---------0--------2--|----2-----2-----0------2----|--------------|
D|--2-------0------------------0--|----2-----0------------0----|--------------|
A|--0-----------------3-----------|----0-----------3-----------|--------0--3--|
E|--------------------------------|----------------------------|--0--3--------|

  ..Pattern1.........................endpattern.
 /  A5      D5      Csus2      D5               
e|--------------------------------|--------------|
b|----------3-------------3----3--|--------------|
g|--2-------2---------0-0------2--|--------------|
D|--2-------0------------------0--|--------------|
A|--0---------------3-------------|--------0--3--|
E|--------------------------------|--0--3--------|

  ..Pattern2.........................endpattern.
 /  A5      D5      Csus2      Dsus2            
e|-----------------------------0-----------------|
b|----------3-------3-3-3-3-3--3-----------------|
g|--2-------2-------0-0-0-0-0--2-----------------|
D|--2-------0------------------0-----------------|
A|--0---------------3-3-3-3-3--------------------|
E|-----------------------------------------------|

 (Angus w/pattern 1)
    b ~~~~~~~~~~~~~~~~~~~~~~~~~~~       r           b    ~~~~~~~~~~~   r
e|----------------------------------------------------------------------------|
b|-8-10----------------------------10-10--8-5---8-------10-----------10--8----|
g|--------------------------------------------------------------------------7-|
D|----------------------------------------------------------------------------|
A|----------------------------------------------------------------------------|
E|----------------------------------------------------------------------------|

      b     b   t                 r              t b      r
e|----------------------------------------------------------------|
b|----------------------------------------------------------------|
g|-7-----8----9--12-14----------9---7-----5-----12-14----8--7--5--|
D|----------------------------------------------------------------|
A|----------------------------------------------------------------|
E|----------------------------------------------------------------|
  (Angus w/pattern 2)
  t b        r            t b          r              b       b  r
e|---------------------------------------------------8-10---------------------|
b|----------------------------------------------5------------8-10---8--5------|
g|12-14----8---7------5---12-14------8-----7----5-----------------------------|
D|----------------------------------------------------------------------------|
A|----------------------------------------------------------------------------|
E|----------------------------------------------------------------------------|
 Pattern 3 (Verse)
   A5      D         G           D
e|----------------------------------|
b|-------------------0--------------| X 2
g|-------------------0-----------2--|
D|-2-------4---------0-----------4--|
A|-0-------5---------------------5--|
E|----------------------------------|
( rat runs down the alley...)  Pattern 4 (played 4 times)
   A5           D          G          D
e|----------------------------------------------------------------------------|
b|----------------------------------------------------------------------------|
g|-------------------------0--------------------------------------------------|
D|-2------2-----4----------0----------4---------------------------------------|
A|-0------0-----5---------------------5-------------0--3----------------------|
E|--------------------------------------------0--3----------------------------|

Play Chorus w/Pattern 1 (3 1/2 X)
(...you shut out the light...)

e|--------------------------------------|  Pattern 5
b|-3--3--3--3--3--3--3--3--3--3--3--3---|
g|-0--0--0--0--0--0--2--2--2--2--2--2---|
D|-------------------0--0--0-
De rest van dit nummer alleen voor Gitaartabs leden! Maak gratis Gitaartabs account aan . 
Gitaar Tabs

Download, print en speel de Tab ♪ Ac/dc - Night Prowler

Meld je aan en print, download of speel binnen 15 sec mee Tab ♫ Ac/dc - Night Prowler.
Reeds 70.000 gitaristen zijn je voorgegaan.

Gratis Aanmelden Gitaartabs